  0
SECTION
  2
HEADER
  9
$ACADVER
  1
AC1009
  9
$INSBASE
 10
0.0
 20
0.0
 30
0.0
  9
$EXTMIN
 10
-8553.7108949690592
 20
-1034.152271907612
 30
0.0
  9
$EXTMAX
 10
12592.089342253619
 20
5563.3245066022992
 30
0.0
  9
$LIMMIN
 10
0.0
 20
0.0
  9
$LIMMAX
 10
12.0
 20
9.0
  9
$ORTHOMODE
 70
     0
  9
$REGENMODE
 70
     1
  9
$FILLMODE
 70
     1
  9
$QTEXTMODE
 70
     0
  9
$MIRRTEXT
 70
     1
  9
$DRAGMODE
 70
     2
  9
$LTSCALE
 40
0.03
  9
$OSMODE
 70
    37
  9
$ATTMODE
 70
     1
  9
$TEXTSIZE
 40
0.0
  9
$TRACEWID
 40
0.05
  9
$TEXTSTYLE
  7
STANDARD
  9
$CLAYER
  8
2
  9
$CELTYPE
  6
CONTINUOUS
  9
$CECOLOR
 62
   256
  9
$DIMSCALE
 40
1.0
  9
$DIMASZ
 40
0.18
  9
$DIMEXO
 40
0.0625
  9
$DIMDLI
 40
0.38
  9
$DIMRND
 40
0.0
  9
$DIMDLE
 40
0.0
  9
$DIMEXE
 40
0.18
  9
$DIMTP
 40
0.0
  9
$DIMTM
 40
0.0
  9
$DIMTXT
 40
0.18
  9
$DIMCEN
 40
0.09
  9
$DIMTSZ
 40
0.0
  9
$DIMTOL
 70
     0
  9
$DIMLIM
 70
     0
  9
$DIMTIH
 70
     1
  9
$DIMTOH
 70
     1
  9
$DIMSE1
 70
     0
  9
$DIMSE2
 70
     0
  9
$DIMTAD
 70
     0
  9
$DIMZIN
 70
     0
  9
$DIMBLK
  1

  9
$DIMASO
 70
     1
  9
$DIMSHO
 70
     1
  9
$DIMPOST
  1

  9
$DIMAPOST
  1

  9
$DIMALT
 70
     0
  9
$DIMALTD
 70
     2
  9
$DIMALTF
 40
25.399999999999999
  9
$DIMLFAC
 40
1.0
  9
$DIMTOFL
 70
     0
  9
$DIMTVP
 40
0.0
  9
$DIMTIX
 70
     0
  9
$DIMSOXD
 70
     0
  9
$DIMSAH
 70
     0
  9
$DIMBLK1
  1

  9
$DIMBLK2
  1

  9
$DIMSTYLE
  2
STANDARD
  9
$DIMCLRD
 70
     0
  9
$DIMCLRE
 70
     0
  9
$DIMCLRT
 70
     0
  9
$DIMTFAC
 40
1.0
  9
$DIMGAP
 40
0.09
  9
$LUNITS
 70
     2
  9
$LUPREC
 70
     4
  9
$SKETCHINC
 40
0.1
  9
$FILLETRAD
 40
0.0
  9
$AUNITS
 70
     0
  9
$AUPREC
 70
     0
  9
$MENU
  1
acad
  9
$ELEVATION
 40
0.0
  9
$PELEVATION
 40
0.0
  9
$THICKNESS
 40
0.0
  9
$LIMCHECK
 70
     0
  9
$BLIPMODE
 70
     0
  9
$CHAMFERA
 40
0.0
  9
$CHAMFERB
 40
0.0
  9
$SKPOLY
 70
     0
  9
$TDCREATE
 40
2451750.5912847221
  9
$TDUPDATE
 40
2456419.345560174
  9
$TDINDWG
 40
0.0120740509
  9
$TDUSRTIMER
 40
0.0120740509
  9
$USRTIMER
 70
     1
  9
$ANGBASE
 50
0.0
  9
$ANGDIR
 70
     0
  9
$PDMODE
 70
     0
  9
$PDSIZE
 40
0.0
  9
$PLINEWID
 40
0.0
  9
$COORDS
 70
     1
  9
$SPLFRAME
 70
     0
  9
$SPLINETYPE
 70
     6
  9
$SPLINESEGS
 70
    10
  9
$ATTDIA
 70
     0
  9
$ATTREQ
 70
     1
  9
$HANDLING
 70
     1
  9
$HANDSEED
  5
6AD
  9
$SURFTAB1
 70
     6
  9
$SURFTAB2
 70
     6
  9
$SURFTYPE
 70
     6
  9
$SURFU
 70
     6
  9
$SURFV
 70
     6
  9
$UCSNAME
  2

  9
$UCSORG
 10
0.0
 20
0.0
 30
0.0
  9
$UCSXDIR
 10
1.0
 20
0.0
 30
0.0
  9
$UCSYDIR
 10
0.0
 20
1.0
 30
0.0
  9
$PUCSNAME
  2

  9
$PUCSORG
 10
0.0
 20
0.0
 30
0.0
  9
$PUCSXDIR
 10
1.0
 20
0.0
 30
0.0
  9
$PUCSYDIR
 10
0.0
 20
1.0
 30
0.0
  9
$USERI1
 70
     0
  9
$USERI2
 70
     0
  9
$USERI3
 70
     0
  9
$USERI4
 70
     0
  9
$USERI5
 70
     0
  9
$USERR1
 40
0.0
  9
$USERR2
 40
0.0
  9
$USERR3
 40
0.0
  9
$USERR4
 40
0.0
  9
$USERR5
 40
0.0
  9
$WORLDVIEW
 70
     1
  9
$SHADEDGE
 70
     3
  9
$SHADEDIF
 70
    70
  9
$TILEMODE
 70
     1
  9
$MAXACTVP
 70
    16
  9
$PLIMCHECK
 70
     0
  9
$PEXTMIN
 10
-1.0000000000000000E+020
 20
-1.0000000000000000E+020
 30
-1.0000000000000000E+020
  9
$PEXTMAX
 10
-1.0000000000000000E+020
 20
-1.0000000000000000E+020
 30
-1.0000000000000000E+020
  9
$PLIMMIN
 10
0.0
 20
0.0
  9
$PLIMMAX
 10
12.0
 20
9.0
  9
$UNITMODE
 70
     0
  9
$VISRETAIN
 70
     0
  9
$PLINEGEN
 70
     1
  9
$PSLTSCALE
 70
     0
  0
ENDSEC
  0
SECTION
  2
TABLES
  0
TABLE
  2
VPORT
 70
     1
  0
VPORT
  2
*ACTIVE
 70
     0
 10
0.0
 20
0.0
 11
1.0
 21
1.0
 12
1456.908142003012
 22
540.51292808579331
 13
0.0
 23
0.0
 14
0.0
 24
0.0
 15
0.0
 25
0.0
 16
0.0
 26
0.0
 36
1.0
 17
-0.9490706443914081
 27
0.5900500000000001
 37
0.0
 40
2396.5229416987181
 41
1.575289575289575
 42
50.0
 43
1.5766
 44
-1.5766
 50
0.0
 51
0.0
 71
    22
 72
   100
 73
     1
 74
     0
 75
     0
 76
     0
 77
     0
 78
     0
  0
ENDTAB
  0
TABLE
  2
LTYPE
 70
     9
  0
LTYPE
  2
CONTINUOUS
 70
     0
  3
Solid line
 72
    65
 73
     0
 40
0.0
  0
LTYPE
  2
DOT
 70
     0
  3
. . . . . . . . . . . . . . . . . . . . . . . . . . . . . . . . .
 72
    65
 73
     2
 40
0.25
 49
0.0
 49
-0.25
  0
LTYPE
  2
HIDDEN
 70
     0
  3
__ __ __ __ __ __ __ __ __ __ __ __ __ __ __ __ __ __ __ __ __ 
 72
    65
 73
     2
 40
0.375
 49
0.25
 49
-0.125
  0
LTYPE
  2
DASHED
 70
     0
  3
__ __ __ __ __ __ __ __ __ __ __ __ __ __ __ __ __ __ __ __ __
 72
    65
 73
     2
 40
0.75
 49
0.5
 49
-0.25
  0
LTYPE
  2
DASHDOT
 70
     0
  3
__ . __ . __ . __ . __ . __ . __ . __ . __ . __ . __ . __ . _
 72
    65
 73
     4
 40
1.0
 49
0.5
 49
-0.25
 49
0.0
 49
-0.25
  0
LTYPE
  2
DIVIDE
 70
     0
  3
____ . . ____ . . ____ . . ____ . . ____ . . ____ . . ____ . .
 72
    65
 73
     6
 40
1.25
 49
0.5
 49
-0.25
 49
0.0
 49
-0.25
 49
0.0
 49
-0.25
  0
LTYPE
  2
CENTER
 70
     0
  3
____ _ ____ _ ____ _ ____ _ ____ _ ____ _ ____ _ ____ _ ____ _
 72
    65
 73
     4
 40
2.0
 49
1.25
 49
-0.25
 49
0.25
 49
-0.25
  0
LTYPE
  2
VERDECKT
 70
     0
  3
_ _ _ _ _ _ _ _ _ _ _ _ _ _ _ _ _ _ _ _ _ _ 
 72
    65
 73
     2
 40
0.25
 49
0.125
 49
-0.125
  0
ENDTAB
  0
TABLE
  2
LAYER
 70
     7
  0
LAYER
  2
0
 70
     0
 62
     7
  6
CONTINUOUS
  0
LAYER
  2
CONSTRUCTION_CLASS
 70
     0
 62
     7
  6
CONTINUOUS
  0
LAYER
  2
PATTERN_CLASS
 70
     0
 62
     7
  6
CONTINUOUS
  0
LAYER
  2
2
 70
     0
 62
     7
  6
CONTINUOUS
  0
LAYER
  2
5
 70
     0
 62
     7
  6
CONTINUOUS
  0
LAYER
  2
KERA0
 70
     0
 62
     5
  6
CONTINUOUS
  0
LAYER
  2
LAYER01
 70
     0
 62
     7
  6
CONTINUOUS
  0
ENDTAB
  0
TABLE
  2
STYLE
 70
     4
  0
STYLE
  2
STANDARD
 70
     0
 40
0.0
 41
1.0
 50
0.0
 71
     0
 42
0.0
  3
txt
  4

  0
STYLE
  2
MONOTXT
 70
     0
 40
0.2
 41
1.0
 50
0.0
 71
     0
 42
0.2
  3
MONOTXT
  4

  0
STYLE
  2
ROMANS
 70
     0
 40
0.2
 41
1.0
 50
0.0
 71
     0
 42
0.2
  3
ROMANS
  4

  0
STYLE
  2
SIMPLEX
 70
     0
 40
0.0
 41
1.0
 50
0.0
 71
     0
 42
0.0
  3
simplex
  4

  0
ENDTAB
  0
TABLE
  2
VIEW
 70
     2
  0
ENDTAB
  0
TABLE
  2
UCS
 70
     0
  0
ENDTAB
  0
TABLE
  2
APPID
 70
     3
  0
APPID
  2
ACAD
 70
     0
  0
APPID
  2
ACAD_MLEADERVER
 70
     0
  0
APPID
  2
ACAD_EXEMPT_FROM_CAD_STANDARDS
 70
     0
  0
ENDTAB
  0
TABLE
  2
DIMSTYLE
 70
     1
  0
DIMSTYLE
  2
STANDARD
 70
     0
  3

  4

  5

  6

  7

 40
1.0
 41
0.18
 42
0.0625
 43
0.38
 44
0.18
 45
0.0
 46
0.0
 47
0.0
 48
0.0
140
0.18
141
0.09
142
0.0
143
25.399999999999999
144
1.0
145
0.0
146
1.0
147
0.09
 71
     0
 72
     0
 73
     1
 74
     1
 75
     0
 76
     0
 77
     0
 78
     0
170
     0
171
     2
172
     0
173
     0
174
     0
175
     0
176
     0
177
     0
178
     0
  0
ENDTAB
  0
ENDSEC
  0
SECTION
  2
BLOCKS
  0
BLOCK
  8
0
  2
$MODEL_SPACE
 70
     0
 10
0.0
 20
0.0
 30
0.0
  3
$MODEL_SPACE
  1

  0
ENDBLK
  5
E
  8
0
  0
BLOCK
 67
     1
  8
0
  2
$PAPER_SPACE
 70
     0
 10
0.0
 20
0.0
 30
0.0
  3
$PAPER_SPACE
  1

  0
ENDBLK
  5
10
 67
     1
  8
0
  0
BLOCK
  8
0
  2
DEFAULT2-G7
 70
     0
 10
0.0
 20
0.0
 30
0.0
  3
DEFAULT2-G7
  1

  0
TEXT
  5
17B
  8
LAYER01
  6
VERDECKT
 62
     1
 10
3286.9151940000002
 20
511.13932199999999
 30
0.0
 40
14.0
  1
A. Sprenger GmbH
  7
SIMPLEX
  0
TEXT
  5
17C
  8
LAYER01
  6
VERDECKT
 62
     1
 10
3286.9151940000002
 20
487.13932199999988
 30
0.0
 40
14.0
  1
Berner Str. 10
  7
SIMPLEX
  0
TEXT
  5
17D
  8
LAYER01
  6
VERDECKT
 62
     1
 10
3286.9151940000002
 20
463.13932199999988
 30
0.0
 40
14.0
  1
60437 Frankfurt
  7
SIMPLEX
  0
TEXT
  5
17E
  8
LAYER01
  6
VERDECKT
 62
     1
 10
3286.9151940000002
 20
439.13932199999999
 30
0.0
 40
14.0
  1
Tel.: 069 - 507 27 41
  7
SIMPLEX
  0
TEXT
  5
17F
  8
LAYER01
  6
VERDECKT
 62
     1
 10
3286.9151940000002
 20
415.13932199999999
 30
0.0
 40
14.0
  1
Fax: 069 - 507 72 91
  7
SIMPLEX
  0
TEXT
  5
180
  8
LAYER01
  6
VERDECKT
 62
     1
 10
3286.9151940000002
 20
391.13932199999999
 30
0.0
 40
14.0
  1
info@varicor.org
  7
SIMPLEX
  0
ENDBLK
  5
181
  8
0
  0
BLOCK
  8
0
  2
DEFAULT2-G6
 70
     0
 10
0.0
 20
0.0
 30
0.0
  3
DEFAULT2-G6
  1

  0
TEXT
  5
184
  8
LAYER01
  6
CONTINUOUS
 62
     1
 10
4758.0610299999989
 20
182.02706000000001
 30
0.0
 40
14.0
  1
Blatt
  7
SIMPLEX
  0
LINE
  5
185
  8
LAYER01
  6
CONTINUOUS
 62
     1
 10
3267.0610300000021
 20
280.02706000000001
 30
0.0
 11
4107.0610299999989
 21
280.02706000000001
 31
0.0
  0
LINE
  5
186
  8
LAYER01
  6
CONTINUOUS
 62
     1
 10
3267.0610300000021
 20
245.02706000000001
 30
0.0
 11
4107.0610299999989
 21
245.02706000000001
 31
0.0
  0
LINE
  5
187
  8
LAYER01
  6
CONTINUOUS
 62
     1
 10
3267.0610300000021
 20
210.02706000000001
 30
0.0
 11
4849.0610299999998
 21
210.02706000000001
 31
0.0
  0
LINE
  5
188
  8
LAYER01
  6
CONTINUOUS
 62
     1
 10
3267.0610300000021
 20
105.02706000000001
 30
0.0
 11
4849.0610299999998
 21
105.02706000000001
 31
0.0
  0
LINE
  5
189
  8
LAYER01
  6
CONTINUOUS
 62
     1
 10
3267.0610300000021
 20
385.02706000000001
 30
0.0
 11
4849.0610299999998
 21
385.02706000000001
 31
0.0
  0
POLYLINE
  5
18A
  8
LAYER01
  6
CONTINUOUS
 62
     1
 66
     1
 10
0.0
 20
0.0
 30
0.0
 70
     1
  0
VERTEX
  5
3C8
  8
LAYER01
  6
CONTINUOUS
 62
     1
 10
3267.0610300000021
 20
63.027059999999999
 30
0.0
  0
VERTEX
  5
3C9
  8
LAYER01
  6
CONTINUOUS
 62
     1
 10
3267.0610300000021
 20
532.02705999999978
 30
0.0
  0
VERTEX
  5
3CA
  8
LAYER01
  6
CONTINUOUS
 62
     1
 10
4849.0610299999998
 20
532.02705999999978
 30
0.0
  0
VERTEX
  5
3CB
  8
LAYER01
  6
CONTINUOUS
 62
     1
 10
4849.0610299999998
 20
63.027059999999999
 30
0.0
  0
SEQEND
  5
3CC
  8
LAYER01
  6
CONTINUOUS
 62
     1
  0
LINE
  5
18B
  8
LAYER01
  6
CONTINUOUS
 62
     1
 10
3267.0610300000021
 20
350.02706000000001
 30
0.0
 11
4107.0610299999989
 21
350.02706000000001
 31
0.0
  0
LINE
  5
18C
  8
LAYER01
  6
CONTINUOUS
 62
     1
 10
3267.0610300000021
 20
315.02706000000001
 30
0.0
 11
4107.0610299999989
 21
315.02706000000001
 31
0.0
  0
LINE
  5
18D
  8
LAYER01
  6
CONTINUOUS
 62
     1
 10
3722.0610299999998
 20
532.02705999999978
 30
0.0
 11
3722.0610299999998
 21
63.027059999999999
 31
0.0
  0
INSERT
  5
18E
  8
LAYER01
  2
DEFAULT2-G7
 10
0.0
 20
0.0
 30
0.0
  0
LINE
  5
18F
  8
LAYER01
  6
CONTINUOUS
 62
     1
 10
3267.0610300000021
 20
140.02706000000001
 30
0.0
 11
3722.0610299999998
 21
140.02706000000001
 31
0.0
  0
LINE
  5
190
  8
LAYER01
  6
CONTINUOUS
 62
     1
 10
3267.0610300000021
 20
175.02706000000001
 30
0.0
 11
3722.0610299999998
 21
175.02706000000001
 31
0.0
  0
LINE
  5
191
  8
LAYER01
  6
CONTINUOUS
 62
     1
 10
3330.0610299999998
 20
385.02706000000001
 30
0.0
 11
3330.0610299999998
 21
63.027059999999999
 31
0.0
  0
TEXT
  5
192
  8
LAYER01
  6
CONTINUOUS
 62
     1
 10
3278.8200019999999
 20
77.027059999999977
 30
0.0
 40
13.300000000000001
  1
Zust
  7
SIMPLEX
  0
LINE
  5
193
  8
LAYER01
  6
CONTINUOUS
 62
     1
 10
3550.959492
 20
63.027059999999999
 30
0.0
 11
3550.959492
 21
385.02706000000001
 31
0.0
  0
LINE
  5
194
  8
LAYER01
  6
CONTINUOUS
 62
     1
 10
3659.0610299999998
 20
385.02706000000001
 30
0.0
 11
3659.0610299999998
 21
63.027059999999999
 31
0.0
  0
TEXT
  5
195
  8
LAYER01
  6
CONTINUOUS
 62
     1
 10
3391.8409890000021
 20
77.027059999999977
 30
0.0
 40
13.300000000000001
  1
Änderung
  7
SIMPLEX
  0
TEXT
  5
196
  8
LAYER01
  6
CONTINUOUS
 62
     1
 10
3570.6568330000018
 20
77.027059999999977
 30
0.0
 40
13.300000000000001
  1
Datum
  7
SIMPLEX
  0
TEXT
  5
197
  8
LAYER01
  6
CONTINUOUS
 62
     1
 10
3664.3304950000002
 20
77.027059999999977
 30
0.0
 40
13.300000000000001
  1
Name
  7
SIMPLEX
  0
LINE
  5
198
  8
LAYER01
  6
CONTINUOUS
 62
     1
 10
4849.0610299999998
 20
476.02705999999989
 30
0.0
 11
4107.0610299999989
 21
476.02705999999989
 31
0.0
  0
LINE
  5
199
  8
LAYER01
  6
CONTINUOUS
 62
     1
 10
3813.0610299999998
 20
245.02706000000001
 30
0.0
 11
3813.0610299999998
 21
385.02706000000001
 31
0.0
  0
TEXT
  5
19A
  8
LAYER01
  6
CONTINUOUS
 62
     1
 10
3736.0610299999998
 20
322.02706000000001
 30
0.0
 40
14.0
  1
Bearb.
  7
SIMPLEX
  0
TEXT
  5
19B
  8
LAYER01
  6
CONTINUOUS
 62
     1
 10
3736.0610299999998
 20
252.02706000000001
 30
0.0
 40
14.0
  1
Norm
  7
SIMPLEX
  0
TEXT
  5
19C
  8
LAYER01
  6
CONTINUOUS
 62
     1
 10
3736.0610299999998
 20
287.02706000000001
 30
0.0
 40
14.0
  1
Gepr.
  7
SIMPLEX
  0
TEXT
  5
19D
  8
LAYER01
  6
CONTINUOUS
 62
     1
 10
3848.0610299999998
 20
357.02706000000001
 30
0.0
 40
14.0
  1
Datum
  7
SIMPLEX
  0
TEXT
  5
19E
  8
LAYER01
  6
CONTINUOUS
 62
     1
 10
3988.0610299999998
 20
357.02706000000001
 30
0.0
 40
14.0
  1
Name
  7
SIMPLEX
  0
TEXT
  5
19F
  8
LAYER01
  6
CONTINUOUS
 62
     1
 10
4814.0610299999998
 20
112.02706000000001
 30
0.0
 40
14.0
  1
Bl.
  7
SIMPLEX
  0
LINE
  5
1A0
  8
LAYER01
  6
CONTINUOUS
 62
     1
 10
4107.0610299999989
 20
63.027059999999999
 30
0.0
 11
4107.0610299999989
 21
532.02705999999978
 31
0.0
  0
LINE
  5
1A1
  8
LAYER01
  6
CONTINUOUS
 62
     1
 10
3946.0610299999998
 20
210.02706000000001
 30
0.0
 11
3946.0610299999998
 21
532.02705999999978
 31
0.0
  0
LINE
  5
1A2
  8
LAYER01
  6
CONTINUOUS
 62
     1
 10
4548.0610299999998
 20
532.02705999999978
 30
0.0
 11
4548.0610299999998
 21
476.02705999999989
 31
0.0
  0
TEXT
  5
1A3
  8
LAYER01
  6
CONTINUOUS
 62
     1
 10
4122.3126300000004
 20
496.28505699999988
 30
0.0
 40
14.0
  1
Maßstab
  7
SIMPLEX
  0
LINE
  5
1A4
  8
LAYER01
  6
CONTINUOUS
 62
     1
 10
4744.0610299999998
 20
210.02706000000001
 30
0.0
 11
4744.0610299999998
 21
105.02706000000001
 31
0.0
  0
LINE
  5
1A5
  8
LAYER01
  6
CONTINUOUS
 62
     1
 10
4744.0610299999998
 20
140.02706000000001
 30
0.0
 11
4849.0610299999998
 21
140.02706000000001
 31
0.0
  0
ENDBLK
  5
1A6
  8
0
  0
BLOCK
  8
0
 62
     7
  2
WMF0
 70
     0
 10
0.0
 20
0.0
 30
0.0
  3
WMF0
  1

  0
POLYLINE
  5
1A9
  8
LAYER01
 62
     7
 66
     1
 10
0.0
 20
0.0
 30
0.0
 70
     1
  0
VERTEX
  5
3CD
  8
LAYER01
 62
     7
 10
2458.2645046842372
 20
7351.0038575557674
 30
0.0
  0
VERTEX
  5
3CE
  8
LAYER01
 62
     7
 10
2628.7570429123371
 20
7351.0038575557674
 30
0.0
  0
VERTEX
  5
3CF
  8
LAYER01
 62
     7
 10
2842.8639513848352
 20
6863.3158993684092
 30
0.0
  0
VERTEX
  5
3D0
  8
LAYER01
 62
     7
 10
3056.9708598573329
 20
7351.0038575557674
 30
0.0
  0
VERTEX
  5
3D1
  8
LAYER01
 62
     7
 10
3235.3932835844162
 20
7351.0038575557674
 30
0.0
  0
VERTEX
  5
3D2
  8
LAYER01
 62
     7
 10
2842.8639513848352
 20
6478.7164526678098
 30
0.0
  0
VERTEX
  5
3D3
  8
LAYER01
 62
     7
 10
2458.2645046842372
 20
7351.0038575557674
 30
0.0
  0
VERTEX
  5
3D4
  8
LAYER01
 62
     7
 10
2458.2645046842372
 20
7351.0038575557674
 30
0.0
  0
SEQEND
  5
3D5
  8
LAYER01
 62
     7
  0
POLYLINE
  5
1AA
  8
LAYER01
 62
     7
 66
     1
 10
0.0
 20
0.0
 30
0.0
 70
     1
  0
VERTEX
  5
3D6
  8
LAYER01
 62
     7
 10
3041.1110888593689
 20
6756.2624451321599
 30
0.0
  0
VERTEX
  5
3D7
  8
LAYER01
 62
     7
 10
3100.5852301017312
 20
6895.0354413643372
 30
0.0
  0
VERTEX
  5
3D8
  8
LAYER01
 62
     7
 10
3358.3065088186272
 20
6895.0354413643372
 30
0.0
  0
VERTEX
  5
3D9
  8
LAYER01
 62
     7
 10
3227.4633980854328
 20
7180.5113193276648
 30
0.0
  0
VERTEX
  5
3DA
  8
LAYER01
 62
     7
 10
3302.7973103257568
 20
7362.8986858042381
 30
0.0
  0
VERTEX
  5
3DB
  8
LAYER01
 62
     7
 10
3655.67721503043
 20
6617.4894488999853
 30
0.0
  0
VERTEX
  5
3DC
  8
LAYER01
 62
     7
 10
3655.67721503043
 20
7351.0038575557674
 30
0.0
  0
VERTEX
  5
3DD
  8
LAYER01
 62
     7
 10
4127.5054022198219
 20
7351.0038575557674
 30
0.0
  0
VERTEX
  5
3DE
  8
LAYER01
 62
     7
 10
4127.5054022198219
 20
7351.0038575557674
 30
0.0
  0
VERTEX
  5
3DF
  8
LAYER01
 62
     7
 10
4171.1197724642188
 20
7343.0739720567844
 30
0.0
  0
VERTEX
  5
3E0
  8
LAYER01
 62
     7
 10
4210.7691999591279
 20
7327.2142010588213
 30
0.0
  0
VERTEX
  5
3E1
  8
LAYER01
 62
     7
 10
4246.4536847045429
 20
7299.4596018123866
 30
0.0
  0
VERTEX
  5
3E2
  8
LAYER01
 62
     7
 10
4278.1732267004691
 20
7271.705002565951
 30
0.0
  0
VERTEX
  5
3E3
  8
LAYER01
 62
     7
 10
4305.9278259469047
 20
7236.0205178205333
 30
0.0
  0
VERTEX
  5
3E4
  8
LAYER01
 62
     7
 10
4325.7525396943593
 20
7196.3710903256278
 30
0.0
  0
VERTEX
  5
3E5
  8
LAYER01
 62
     7
 10
4341.6123106923224
 20
7148.7917773317413
 30
0.0
  0
VERTEX
  5
3E6
  8
LAYER01
 62
     7
 10
4345.577253441812
 20
7105.1774070873416
 30
0.0
  0
VERTEX
  5
3E7
  8
LAYER01
 62
     7
 10
4345.577253441812
 20
7105.1774070873416
 30
0.0
  0
VERTEX
  5
3E8
  8
LAYER01
 62
     7
 10
4345.577253441812
 20
7057.5980940934542
 30
0.0
  0
VERTEX
  5
3E9
  8
LAYER01
 62
     7
 10
4337.6473679428309
 20
7017.948666598546
 30
0.0
  0
VERTEX
  5
3EA
  8
LAYER01
 62
     7
 10
4321.7875969448678
 20
6978.2992391036396
 30
0.0
  0
VERTEX
  5
3EB
  8
LAYER01
 62
     7
 10
4301.9628831974142
 20
6942.6147543582238
 30
0.0
  0
VERTEX
  5
3EC
  8
LAYER01
 62
     7
 10
4274.2082839509794
 20
6910.8952123622976
 30
0.0
  0
VERTEX
  5
3ED
  8
LAYER01
 62
     7
 10
4242.4887419550541
 20
6883.1406131158628
 30
0.0
  0
VERTEX
  5
3EE
  8
LAYER01
 62
     7
 10
4206.8042572096356
 20
6863.3158993684092
 30
0.0
  0
VERTEX
  5
3EF
  8
LAYER01
 62
     7
 10
4163.1898869652387
 20
6847.4561283704461
 30
0.0
  0
VERTEX
  5
3F0
  8
LAYER01
 62
     7
 10
4416.9462229326446
 20
6510.4359946637369
 30
0.0
  0
VERTEX
  5
3F1
  8
LAYER01
 62
     7
 10
4416.9462229326446
 20
7351.0038575557674
 30
0.0
  0
VERTEX
  5
3F2
  8
LAYER01
 62
     7
 10
4583.4738184112539
 20
7351.0038575557674
 30
0.0
  0
VERTEX
  5
3F3
  8
LAYER01
 62
     7
 10
4583.4738184112539
 20
6502.5061091647531
 30
0.0
  0
VERTEX
  5
3F4
  8
LAYER01
 62
     7
 10
4226.628970957091
 20
6502.5061091647531
 30
0.0
  0
VERTEX
  5
3F5
  8
LAYER01
 62
     7
 10
3881.6789517513998
 20
6942.6147543582238
 30
0.0
  0
VERTEX
  5
3F6
  8
LAYER01
 62
     7
 10
4056.1364327289889
 20
6942.6147543582238
 30
0.0
  0
VERTEX
  5
3F7
  8
LAYER01
 62
     7
 10
4056.1364327289889
 20
6942.6147543582238
 30
0.0
  0
VERTEX
  5
3F8
  8
LAYER01
 62
     7
 10
4079.926089225934
 20
6946.5796971077143
 30
0.0
  0
VERTEX
  5
3F9
  8
LAYER01
 62
     7
 10
4103.7157457228786
 20
6954.5095826066963
 30
0.0
  0
VERTEX
  5
3FA
  8
LAYER01
 62
     7
 10
4123.5404594703332
 20
6966.4044108551689
 30
0.0
  0
VERTEX
  5
3FB
  8
LAYER01
 62
     7
 10
4143.3651732177859
 20
6982.264181853131
 30
0.0
  0
VERTEX
  5
3FC
  8
LAYER01
 62
     7
 10
4155.2600014662594
 20
7002.0888956005829
 30
0.0
  0
VERTEX
  5
3FD
  8
LAYER01
 62
     7
 10
4167.1548297147283
 20
7025.878552097528
 30
0.0
  0
VERTEX
  5
3FE
  8
LAYER01
 62
     7
 10
4175.0847152137121
 20
7049.6682085944713
 30
0.0
  0
VERTEX
  5
3FF
  8
LAYER01
 62
     7
 10
4175.0847152137121
 20
7077.4228078409069
 30
0.0
  0
VERTEX
  5
400
  8
LAYER01
 62
     7
 10
4175.0847152137121
 20
7077.4228078409069
 30
0.0
  0
VERTEX
  5
401
  8
LAYER01
 62
     7
 10
4175.0847152137121
 20
7101.212464337852
 30
0.0
  0
VERTEX
  5
402
  8
LAYER01
 62
     7
 10
4167.1548297147283
 20
7125.0021208347962
 30
0.0
  0
VERTEX
  5
403
  8
LAYER01
 62
     7
 10
4159.224944215749
 20
7148.7917773317413
 30
0.0
  0
VERTEX
  5
404
  8
LAYER01
 62
     7
 10
4143.3651732177859
 20
7168.6164910791931
 30
0.0
  0
VERTEX
  5
405
  8
LAYER01
 62
     7
 10
4127.5054022198219
 20
7184.4762620771562
 30
0.0
  0
VERTEX
  5
406
  8
LAYER01
 62
     7
 10
4103.7157457228786
 20
7196.3710903256278
 30
0.0
  0
VERTEX
  5
407
  8
LAYER01
 62
     7
 10
4079.926089225934
 20
7204.3009758246117
 30
0.0
  0
VERTEX
  5
408
  8
LAYER01
 62
     7
 10
4056.1364327289889
 20
7208.2659185741013
 30
0.0
  0
VERTEX
  5
409
  8
LAYER01
 62
     7
 10
3834.099638757511
 20
7208.2659185741013
 30
0.0
  0
VERTEX
  5
40A
  8
LAYER01
 62
     7
 10
3834.099638757511
 20
6502.5061091647531
 30
0.0
  0
VERTEX
  5
40B
  8
LAYER01
 62
     7
 10
3548.6237607941812
 20
6502.5061091647531
 30
0.0
  0
VERTEX
  5
40C
  8
LAYER01
 62
     7
 10
3429.6754783094589
 20
6756.2624451321599
 30
0.0
  0
VERTEX
  5
40D
  8
LAYER01
 62
     7
 10
3041.1110888593689
 20
6756.2624451321599
 30
0.0
  0
VERTEX
  5
40E
  8
LAYER01
 62
     7
 10
3041.1110888593689
 20
6756.2624451321599
 30
0.0
  0
SEQEND
  5
40F
  8
LAYER01
 62
     7
  0
POLYLINE
  5
1AB
  8
LAYER01
 62
     7
 66
     1
 10
0.0
 20
0.0
 30
0.0
 70
     1
  0
VERTEX
  5
410
  8
LAYER01
 62
     7
 10
5352.6727118124491
 20
7295.4946590628952
 30
0.0
  0
VERTEX
  5
411
  8
LAYER01
 62
     7
 10
5245.6192575762007
 20
7160.6866055802111
 30
0.0
  0
VERTEX
  5
412
  8
LAYER01
 62
     7
 10
5245.6192575762007
 20
7160.6866055802111
 30
0.0
  0
VERTEX
  5
413
  8
LAYER01
 62
     7
 10
5209.9347728307857
 20
7184.4762620771562
 30
0.0
  0
VERTEX
  5
414
  8
LAYER01
 62
     7
 10
5174.250288085369
 20
7204.3009758246117
 30
0.0
  0
VERTEX
  5
415
  8
LAYER01
 62
     7
 10
5134.6008605904626
 20
7216.1958040730824
 30
0.0
  0
VERTEX
  5
416
  8
LAYER01
 62
     7
 10
5090.9864903460648
 20
7216.1958040730824
 30
0.0
  0
VERTEX
  5
417
  8
LAYER01
 62
     7
 10
5090.9864903460648
 20
7216.1958040730824
 30
0.0
  0
VERTEX
  5
418
  8
LAYER01
 62
     7
 10
5063.2318910996291
 20
7216.1958040730824
 30
0.0
  0
VERTEX
  5
419
  8
LAYER01
 62
     7
 10
5035.4772918531944
 20
7212.2308613235928
 30
0.0
  0
VERTEX
  5
41A
  8
LAYER01
 62
     7
 10
5007.7226926067578
 20
7204.3009758246117
 30
0.0
  0
VERTEX
  5
41B
  8
LAYER01
 62
     7
 10
4979.9680933603249
 20
7192.4061475761382
 30
0.0
  0
VERTEX
  5
41C
  8
LAYER01
 62
     7
 10
4956.1784368633807
 20
7180.5113193276648
 30
0.0
  0
VERTEX
  5
41D
  8
LAYER01
 62
     7
 10
4936.3537231159271
 20
7164.6515483297017
 30
0.0
  0
VERTEX
  5
41E
  8
LAYER01
 62
     7
 10
4912.5640666189829
 20
7148.7917773317413
 30
0.0
  0
VERTEX
  5
41F
  8
LAYER01
 62
     7
 10
4896.7042956210198
 20
7128.9670635842867
 30
0.0
  0
VERTEX
  5
420
  8
LAYER01
 62
     7
 10
4876.8795818735662
 20
7105.1774070873416
 30
0.0
  0
VERTEX
  5
421
  8
LAYER01
 62
     7
 10
4864.9847536250936
 20
7081.3877505903993
 30
0.0
  0
VERTEX
  5
422
  8
LAYER01
 62
     7
 10
4849.1249826271314
 20
7057.5980940934542
 30
0.0
  0
VERTEX
  5
423
  8
LAYER01
 62
     7
 10
4837.2301543786589
 20
7033.8084375965091
 30
0.0
  0
VERTEX
  5
424
  8
LAYER01
 62
     7
 10
4829.3002688796769
 20
7006.0538383500743
 30
0.0
  0
VERTEX
  5
425
  8
LAYER01
 62
     7
 10
4825.3353261301863
 20
6978.2992391036396
 30
0.0
  0
VERTEX
  5
426
  8
LAYER01
 62
     7
 10
4821.3703833806958
 20
6950.5446398572049
 30
0.0
  0
VERTEX
  5
427
  8
LAYER01
 62
     7
 10
4817.4054406312061
 20
6918.8250978612787
 30
0.0
  0
VERTEX
  5
428
  8
LAYER01
 62
     7
 10
4817.4054406312061
 20
6918.8250978612787
 30
0.0
  0
VERTEX
  5
429
  8
LAYER01
 62
     7
 10
4821.3703833806958
 20
6891.0704986148439
 30
0.0
  0
VERTEX
  5
42A
  8
LAYER01
 62
     7
 10
4825.3353261301863
 20
6863.3158993684092
 30
0.0
  0
VERTEX
  5
42B
  8
LAYER01
 62
     7
 10
4829.3002688796769
 20
6835.5613001219772
 30
0.0
  0
VERTEX
  5
42C
  8
LAYER01
 62
     7
 10
4841.1950971281503
 20
6811.7716436250303
 30
0.0
  0
VERTEX
  5
42D
  8
LAYER01
 62
     7
 10
4849.1249826271314
 20
6787.9819871280861
 30
0.0
  0
VERTEX
  5
42E
  8
LAYER01
 62
     7
 10
4864.9847536250936
 20
6764.1923306311428
 30
0.0
  0
VERTEX
  5
42F
  8
LAYER01
 62
     7
 10
4880.8445246230567
 20
6740.4026741341977
 30
0.0
  0
VERTEX
  5
430
  8
LAYER01
 62
     7
 10
4896.7042956210198
 20
6720.5779603867441
 30
0.0
  0
VERTEX
  5
431
  8
LAYER01
 62
     7
 10
4916.5290093684744
 20
6700.7532466392904
 30
0.0
  0
VERTEX
  5
432
  8
LAYER01
 62
     7
 10
4936.3537231159271
 20
6684.8934756413273
 30
0.0
  0
VERTEX
  5
433
  8
LAYER01
 62
     7
 10
4960.1433796128722
 20
6672.9986473928557
 30
0.0
  0
VERTEX
  5
434
  8
LAYER01
 62
     7
 10
4983.9330361098146
 20
6661.103819144384
 30
0.0
  0
VERTEX
  5
435
  8
LAYER01
 62
     7
 10
5011.6876353562502
 20
6649.2089908959097
 30
0.0
  0
VERTEX
  5
436
  8
LAYER01
 62
     7
 10
5035.4772918531944
 20
6641.2791053969304
 30
0.0
  0
VERTEX
  5
437
  8
LAYER01
 62
     7
 10
5063.2318910996291
 20
6637.3141626474389
 30
0.0
  0
VERTEX
  5
438
  8
LAYER01
 62
     7
 10
5094.9514330955544
 20
6637.3141626474389
 30
0.0
  0
VERTEX
  5
439
  8
LAYER01
 62
     7
 10
5094.9514330955544
 20
6637.3141626474389
 30
0.0
  0
VERTEX
  5
43A
  8
LAYER01
 62
     7
 10
5138.5658033399532
 20
6641.2791053969304
 30
0.0
  0
VERTEX
  5
43B
  8
LAYER01
 62
     7
 10
5174.250288085369
 20
6649.2089908959097
 30
0.0
  0
VERTEX
  5
43C
  8
LAYER01
 62
     7
 10
5209.9347728307857
 20
6669.0337046433651
 30
0.0
  0
VERTEX
  5
43D
  8
LAYER01
 62
     7
 10
5245.6192575762007
 20
6692.8233611403102
 30
0.0
  0
VERTEX
  5
43E
  8
LAYER01
 62
     7
 10
5348.7077690629603
 20
6554.0503649081338
 30
0.0
  0
VERTEX
  5
43F
  8
LAYER01
 62
     7
 10
5348.7077690629603
 20
6554.0503649081338
 30
0.0
  0
VERTEX
  5
440
  8
LAYER01
 62
     7
 10
5289.2336278206003
 20
6518.365880162718
 30
0.0
  0
VERTEX
  5
441
  8
LAYER01
 62
     7
 10
5257.5140858246741
 20
6506.4710519142454
 30
0.0
  0
VERTEX
  5
442
  8
LAYER01
 62
     7
 10
5229.7594865782394
 20
6494.5762236657738
 30
0.0
  0
VERTEX
  5
443
  8
LAYER01
 62
     7
 10
5198.0399445823132
 20
6486.6463381667909
 30
0.0
  0
VERTEX
  5
444
  8
LAYER01
 62
     7
 10
5166.3204025863879
 20
6482.6813954173012
 30
0.0
  0
VERTEX
  5
445
  8
LAYER01
 62
     7
 10
5094.9514330955544
 20
6478.7164526678098
 30
0.0
  0
VERTEX
  5
446
  8
LAYER01
 62
     7
 10
5094.9514330955544
 20
6478.7164526678098
 30
0.0
  0
VERTEX
  5
447
  8
LAYER01
 62
     7
 10
5047.372120101667
 20
6482.6813954173012
 30
0.0
  0
VERTEX
  5
448
  8
LAYER01
 62
     7
 10
5003.7577498572691
 20
6490.6112809162832
 30
0.0
  0
VERTEX
  5
449
  8
LAYER01
 62
     7
 10
4960.1433796128722
 20
6498.5411664152653
 30
0.0
  0
VERTEX
  5
44A
  8
LAYER01
 62
     7
 10
4920.493952117964
 20
6514.4009374132283
 30
0.0
  0
VERTEX
  5
44B
  8
LAYER01
 62
     7
 10
4880.8445246230567
 20
6534.2256511606811
 30
0.0
  0
VERTEX
  5
44C
  8
LAYER01
 62
     7
 10
4845.16003987764
 20
6554.0503649081338
 30
0.0
  0
VERTEX
  5
44D
  8
LAYER01
 62
     7
 10
4809.4755551322241
 20
6581.8049641545704
 30
0.0
  0
VERTEX
  5
44E
  8
LAYER01
 62
     7
 10
4777.756013136298
 20
6609.5595634010042
 30
0.0
  0
VERTEX
  5
44F
  8
LAYER01
 62
     7
 10
4746.0364711403727
 20
6641.2791053969304
 30
0.0
  0
VERTEX
  5
450
  8
LAYER01
 62
     7
 10
4722.2468146434294
 20
6676.9635901423471
 30
0.0
  0
VERTEX
  5
451
  8
LAYER01
 62
     7
 10
4698.4571581464834
 20
6712.648074887763
 30
0.0
  0
VERTEX
  5
452
  8
LAYER01
 62
     7
 10
4678.6324443990297
 20
6752.2975023826693
 30
0.0
  0
VERTEX
  5
453
  8
LAYER01
 62
     7
 10
4666.737616150559
 20
6791.9469298775748
 30
0.0
  0
VERTEX
  5
454
  8
LAYER01
 62
     7
 10
4654.8427879020883
 20
6835.5613001219772
 30
0.0
  0
VERTEX
  5
455
  8
LAYER01
 62
     7
 10
4646.9129024031063
 20
6879.1756703663723
 30
0.0
  0
VERTEX
  5
456
  8
LAYER01
 62
     7
 10
4642.947959653613
 20
6926.7549833602607
 30
0.0
  0
VERTEX
  5
457
  8
LAYER01
 62
     7
 10
4642.947959653613
 20
6926.7549833602607
 30
0.0
  0
VERTEX
  5
458
  8
LAYER01
 62
     7
 10
4646.9129024031063
 20
6970.3693536046603
 30
0.0
  0
VERTEX
  5
459
  8
LAYER01
 62
     7
 10
4654.8427879020883
 20
7017.948666598546
 30
0.0
  0
VERTEX
  5
45A
  8
LAYER01
 62
     7
 10
4662.7726734010676
 20
7057.5980940934542
 30
0.0
  0
VERTEX
  5
45B
  8
LAYER01
 62
     7
 10
4678.6324443990297
 20
7101.212464337852
 30
0.0
  0
VERTEX
  5
45C
  8
LAYER01
 62
     7
 10
4698.4571581464834
 20
7140.8618918327593
 30
0.0
  0
VERTEX
  5
45D
  8
LAYER01
 62
     7
 10
4718.2818718939379
 20
7176.5463765781742
 30
0.0
  0
VERTEX
  5
45E
  8
LAYER01
 62
     7
 10
4746.0364711403727
 20
7212.2308613235928
 30
0.0
  0
VERTEX
  5
45F
  8
LAYER01
 62
     7
 10
4773.7910703868083
 20
7243.950403319518
 30
0.0
  0
VERTEX
  5
460
  8
LAYER01
 62
     7
 10
4805.5106123827327
 20
7271.705002565951
 30
0.0
  0
VERTEX
  5
461
  8
LAYER01
 62
     7
 10
4841.1950971281503
 20
7299.4596018123866
 30
0.0
  0
VERTEX
  5
462
  8
LAYER01
 62
     7
 10
4876.8795818735662
 20
7319.2843155598421
 30
0.0
  0
VERTEX
  5
463
  8
LAYER01
 62
     7
 10
4916.5290093684744
 20
7339.1090293072939
 30
0.0
  0
VERTEX
  5
464
  8
LAYER01
 62
     7
 10
4956.1784368633807
 20
7354.9688003052579
 30
0.0
  0
VERTEX
  5
465
  8
LAYER01
 62
     7
 10
4999.7928071077777
 20
7366.8636285537268
 30
0.0
  0
VERTEX
  5
466
  8
LAYER01
 62
     7
 10
5047.372120101667
 20
7370.8285713032201
 30
0.0
  0
VERTEX
  5
467
  8
LAYER01
 62
     7
 10
5090.9864903460648
 20
7374.7935140527088
 30
0.0
  0
VERTEX
  5
468
  8
LAYER01
 62
     7
 10
5090.9864903460648
 20
7374.7935140527088
 30
0.0
  0
VERTEX
  5
469
  8
LAYER01
 62
     7
 10
5162.3554598368992
 20
7370.8285713032201
 30
0.0
  0
VERTEX
  5
46A
  8
LAYER01
 62
     7
 10
5198.0399445823132
 20
7366.8636285537268
 30
0.0
  0
VERTEX
  5
46B
  8
LAYER01
 62
     7
 10
5229.7594865782394
 20
7358.9337430547457
 30
0.0
  0
VERTEX
  5
46C
  8
LAYER01
 62
     7
 10
5257.5140858246741
 20
7347.0389148062732
 30
0.0
  0
VERTEX
  5
46D
  8
LAYER01
 62
     7
 10
5289.2336278206003
 20
7335.1440865578052
 30
0.0
  0
VERTEX
  5
46E
  8
LAYER01
 62
     7
 10
5320.9531698165256
 20
7315.3193728103488
 30
0.0
  0
VERTEX
  5
46F
  8
LAYER01
 62
     7
 10
5352.6727118124491
 20
7295.4946590628952
 30
0.0
  0
VERTEX
  5
470
  8
LAYER01
 62
     7
 10
5352.6727118124491
 20
7295.4946590628952
 30
0.0
  0
SEQEND
  5
471
  8
LAYER01
 62
     7
  0
POLYLINE
  5
1AC
  8
LAYER01
 62
     7
 66
     1
 10
0.0
 20
0.0
 30
0.0
 70
     1
  0
VERTEX
  5
472
  8
LAYER01
 62
     7
 10
5737.2721585130503
 20
7370.8285713032201
 30
0.0
  0
VERTEX
  5
473
  8
LAYER01
 62
     7
 10
5737.2721585130503
 20
7370.8285713032201
 30
0.0
  0
VERTEX
  5
474
  8
LAYER01
 62
     7
 10
5693.6577882686533
 20
7366.8636285537268
 30
0.0
  0
VERTEX
  5
475
  8
LAYER01
 62
     7
 10
5646.0784752747632
 20
7362.8986858042381
 30
0.0
  0
VERTEX
  5
476
  8
LAYER01
 62
     7
 10
5606.429047779855
 20
7351.0038575557674
 30
0.0
  0
VERTEX
  5
477
  8
LAYER01
 62
     7
 10
5562.814677535458
 20
7335.1440865578052
 30
0.0
  0
VERTEX
  5
478
  8
LAYER01
 62
     7
 10
5523.1652500405517
 20
7319.2843155598421
 30
0.0
  0
VERTEX
  5
479
  8
LAYER01
 62
     7
 10
5487.4807652951349
 20
7295.4946590628952
 30
0.0
  0
VERTEX
  5
47A
  8
LAYER01
 62
     7
 10
5451.7962805497182
 20
7271.705002565951
 30
0.0
  0
VERTEX
  5
47B
  8
LAYER01
 62
     7
 10
5420.0767385537929
 20
7239.9854605700248
 30
0.0
  0
VERTEX
  5
47C
  8
LAYER01
 62
     7
 10
5392.3221393073582
 20
7208.2659185741013
 30
0.0
  0
VERTEX
  5
47D
  8
LAYER01
 62
     7
 10
5364.5675400609243
 20
7176.5463765781742
 30
0.0
  0
VERTEX
  5
47E
  8
LAYER01
 62
     7
 10
5340.7778835639801
 20
7140.8618918327593
 30
0.0
  0
VERTEX
  5
47F
  8
LAYER01
 62
     7
 10
5320.9531698165256
 20
7101.212464337852
 30
0.0
  0
VERTEX
  5
480
  8
LAYER01
 62
     7
 10
5309.0583415680539
 20
7057.5980940934542
 30
0.0
  0
VERTEX
  5
481
  8
LAYER01
 62
     7
 10
5297.1635133195814
 20
7017.948666598546
 30
0.0
  0
VERTEX
  5
482
  8
LAYER01
 62
     7
 10
5289.2336278206003
 20
6970.3693536046603
 30
0.0
  0
VERTEX
  5
483
  8
LAYER01
 62
     7
 10
5285.2686850711088
 20
6926.7549833602607
 30
0.0
  0
VERTEX
  5
484
  8
LAYER01
 62
     7
 10
5285.2686850711088
 20
6926.7549833602607
 30
0.0
  0
VERTEX
  5
485
  8
LAYER01
 62
     7
 10
5289.2336278206003
 20
6879.1756703663723
 30
0.0
  0
VERTEX
  5
486
  8
LAYER01
 62
     7
 10
5293.1985705700909
 20
6835.5613001219772
 30
0.0
  0
VERTEX
  5
487
  8
LAYER01
 62
     7
 10
5305.0933988185634
 20
6791.9469298775748
 30
0.0
  0
VERTEX
  5
488
  8
LAYER01
 62
     7
 10
5320.9531698165256
 20
6752.2975023826693
 30
0.0
  0
VERTEX
  5
489
  8
LAYER01
 62
     7
 10
5336.8129408144878
 20
6712.648074887763
 30
0.0
  0
VERTEX
  5
48A
  8
LAYER01
 62
     7
 10
5360.602597311432
 20
6676.9635901423471
 30
0.0
  0
VERTEX
  5
48B
  8
LAYER01
 62
     7
 10
5384.3922538083762
 20
6641.2791053969304
 30
0.0
  0
VERTEX
  5
48C
  8
LAYER01
 62
     7
 10
5412.1468530548118
 20
6609.5595634010042
 30
0.0
  0
VERTEX
  5
48D
  8
LAYER01
 62
     7
 10
5443.8663950507362
 20
6577.8400214050789
 30
0.0
  0
VERTEX
  5
48E
  8
LAYER01
 62
     7
 10
5479.5508797961529
 20
6554.0503649081338
 30
0.0
  0
VERTEX
  5
48F
  8
LAYER01
 62
     7
 10
5515.2353645415697
 20
6530.2607084111914
 30
0.0
  0
VERTEX
  5
490
  8
LAYER01
 62
     7
 10
5554.8847920364769
 20
6510.4359946637369
 30
0.0
  0
VERTEX
  5
491
  8
LAYER01
 62
     7
 10
5594.5342195313842
 20
6494.5762236657738
 30
0.0
  0
VERTEX
  5
492
  8
LAYER01
 62
     7
 10
5638.1485897757821
 20
6486.6463381667909
 30
0.0
  0
VERTEX
  5
493
  8
LAYER01
 62
     7
 10
5681.762960020179
 20
6478.7164526678098
 30
0.0
  0
VERTEX
  5
494
  8
LAYER01
 62
     7
 10
5725.3773302645768
 20
6474.7515099183202
 30
0.0
  0
VERTEX
  5
495
  8
LAYER01
 62
     7
 10
5725.3773302645768
 20
6474.7515099183202
 30
0.0
  0
VERTEX
  5
496
  8
LAYER01
 62
     7
 10
5772.9566432584652
 20
6478.7164526678098
 30
0.0
  0
VERTEX
  5
497
  8
LAYER01
 62
     7
 10
5816.5710135028621
 20
6486.6463381667909
 30
0.0
  0
VERTEX
  5
498
  8
LAYER01
 62
     7
 10
5860.1853837472609
 20
6498.5411664152653
 30
0.0
  0
VERTEX
  5
499
  8
LAYER01
 62
     7
 10
5899.8348112421681
 20
6514.4009374132283
 30
0.0
  0
VERTEX
  5
49A
  8
LAYER01
 62
     7
 10
5939.4842387370763
 20
6534.2256511606811
 30
0.0
  0
VERTEX
  5
49B
  8
LAYER01
 62
     7
 10
5975.1687234824913
 20
6558.0153076576235
 30
0.0
  0
VERTEX
  5
49C
  8
LAYER01
 62
     7
 10
6010.853208227908
 20
6581.8049641545704
 30
0.0
  0
VERTEX
  5
49D
  8
LAYER01
 62
     7
 10
6042.5727502238333
 20
6613.5245061504938
 30
0.0
  0
VERTEX
  5
49E
  8
LAYER01
 62
     7
 10
6070.3273494702689
 20
6645.2440481464209
 30
0.0
  0
VERTEX
  5
49F
  8
LAYER01
 62
     7
 10
6094.1170059672131
 20
6680.9285328918368
 30
0.0
  0
VERTEX
  5
4A0
  8
LAYER01
 62
     7
 10
6113.9417197146659
 20
6716.6130176372544
 30
0.0
  0
VERTEX
  5
4A1
  8
LAYER01
 62
     7
 10
6133.7664334621204
 20
6756.2624451321599
 30
0.0
  0
VERTEX
  5
4A2
  8
LAYER01
 62
     7
 10
6149.6262044600817
 20
6799.8768153765577
 30
0.0
  0
VERTEX
  5
4A3
  8
LAYER01
 62
     7
 10
6157.5560899590637
 20
6843.4911856209546
 30
0.0
  0
VERTEX
  5
4A4
  8
LAYER01
 62
     7
 10
6161.5210327085533
 20
6887.1055558653534
 30
0.0
  0
VERTEX
  5
4A5
  8
LAYER01
 62
     7
 10
6165.4859754580457
 20
6934.6848688592418
 30
0.0
  0
VERTEX
  5
4A6
  8
LAYER01
 62
     7
 10
6165.4859754580457
 20
6934.6848688592418
 30
0.0
  0
VERTEX
  5
4A7
  8
LAYER01
 62
     7
 10
6161.5210327085533
 20
6978.2992391036396
 30
0.0
  0
VERTEX
  5
4A8
  8
LAYER01
 62
     7
 10
6153.5911472095731
 20
7021.9136093480374
 30
0.0
  0
VERTEX
  5
4A9
  8
LAYER01
 62
     7
 10
6141.6963189611024
 20
7061.5630368429456
 30
0.0
  0
VERTEX
  5
4AA
  8
LAYER01
 62
     7
 10
6129.8014907126289
 20
7101.212464337852
 30
0.0
  0
VERTEX
  5
4AB
  8
LAYER01
 62
     7
 10
6109.9767769651762
 20
7136.8969490832678
 30
0.0
  0
VERTEX
  5
4AC
  8
LAYER01
 62
     7
 10
6090.1520632177217
 20
7172.5814338286846
 30
0.0
  0
VERTEX
  5
4AD
  8
LAYER01
 62
     7
 10
6066.3624067207766
 20
7208.2659185741013
 30
0.0
  0
VERTEX
  5
4AE
  8
LAYER01
 62
     7
 10
6038.6078074743436
 20
7236.0205178205333
 30
0.0
  0
VERTEX
  5
4AF
  8
LAYER01
 62
     7
 10
6006.8882654784184
 20
7263.7751170669699
 30
0.0
  0
VERTEX
  5
4B0
  8
LAYER01
 62
     7
 10
5975.1687234824913
 20
7291.5297163134037
 30
0.0
  0
VERTEX
  5
4B1
  8
LAYER01
 62
     7
 10
5939.4842387370763
 20
7311.3544300608592
 30
0.0
  0
VERTEX
  5
4B2
  8
LAYER01
 62
     7
 10
5903.7997539916578
 20
7331.1791438083146
 30
0.0
  0
VERTEX
  5
4B3
  8
LAYER01
 62
     7
 10
5864.1503264967514
 20
7347.0389148062732
 30
0.0
  0
VERTEX
  5
4B4
  8
LAYER01
 62
     7
 10
5824.5008990018441
 20
7358.9337430547457
 30
0.0
  0
VERTEX
  5
4B5
  8
LAYER01
 62
     7
 10
5780.8865287574472
 20
7366.8636285537268
 30
0.0
  0
VERTEX
  5
4B6
  8
LAYER01
 62
     7
 10
5737.2721585130503
 20
7370.8285713032201
 30
0.0
  0
VERTEX
  5
4B7
  8
LAYER01
 62
     7
 10
5737.2721585130503
 20
7370.8285713032201
 30
0.0
  0
SEQEND
  5
4B8
  8
LAYER01
 62
     7
  0
POLYLINE
  5
1AD
  8
LAYER01
 62
     7
 66
     1
 10
0.0
 20
0.0
 30
0.0
 70
     1
  0
VERTEX
  5
4B9
  8
LAYER01
 62
     7
 10
5725.3773302645768
 20
6637.3141626474389
 30
0.0
  0
VERTEX
  5
4BA
  8
LAYER01
 62
     7
 10
5725.3773302645768
 20
6637.3141626474389
 30
0.0
  0
VERTEX
  5
4BB
  8
LAYER01
 62
     7
 10
5697.6227310181421
 20
6641.2791053969304
 30
0.0
  0
VERTEX
  5
4BC
  8
LAYER01
 62
     7
 10
5669.8681317717073
 20
6645.2440481464209
 30
0.0
  0
VERTEX
  5
4BD
  8
LAYER01
 62
     7
 10
5642.1135325252717
 20
6649.2089908959097
 30
0.0
  0
VERTEX
  5
4BE
  8
LAYER01
 62
     7
 10
5614.3589332788379
 20
6661.103819144384
 30
0.0
  0
VERTEX
  5
4BF
  8
LAYER01
 62
     7
 10
5590.5692767818909
 20
6672.9986473928557
 30
0.0
  0
VERTEX
  5
4C0
  8
LAYER01
 62
     7
 10
5566.7796202849486
 20
6688.8584183908179
 30
0.0
  0
VERTEX
  5
4C1
  8
LAYER01
 62
     7
 10
5546.9549065374968
 20
6704.718189388781
 30
0.0
  0
VERTEX
  5
4C2
  8
LAYER01
 62
     7
 10
5527.1301927900431
 20
6724.5429031362328
 30
0.0
  0
VERTEX
  5
4C3
  8
LAYER01
 62
     7
 10
5507.3054790425886
 20
6744.3676168836892
 30
0.0
  0
VERTEX
  5
4C4
  8
LAYER01
 62
     7
 10
5491.4457080446264
 20
6764.1923306311428
 30
0.0
  0
VERTEX
  5
4C5
  8
LAYER01
 62
     7
 10
5479.5508797961529
 20
6787.9819871280861
 30
0.0
  0
VERTEX
  5
4C6
  8
LAYER01
 62
     7
 10
5467.6560515476813
 20
6815.7365863745208
 30
0.0
  0
VERTEX
  5
4C7
  8
LAYER01
 62
     7
 10
5455.7612232992096
 20
6839.5262428714632
 30
0.0
  0
VERTEX
  5
4C8
  8
LAYER01
 62
     7
 10
5451.7962805497182
 20
6867.2808421178988
 30
0.0
  0
VERTEX
  5
4C9
  8
LAYER01
 62
     7
 10
5443.8663950507362
 20
6895.0354413643372
 30
0.0
  0
VERTEX
  5
4CA
  8
LAYER01
 62
     7
 10
5443.8663950507362
 20
6926.7549833602607
 30
0.0
  0
VERTEX
  5
4CB
  8
LAYER01
 62
     7
 10
5443.8663950507362
 20
6926.7549833602607
 30
0.0
  0
VERTEX
  5
4CC
  8
LAYER01
 62
     7
 10
5447.8313378002258
 20
6954.5095826066963
 30
0.0
  0
VERTEX
  5
4CD
  8
LAYER01
 62
     7
 10
5451.7962805497182
 20
6982.264181853131
 30
0.0
  0
VERTEX
  5
4CE
  8
LAYER01
 62
     7
 10
5459.7261660486993
 20
7010.0187810995658
 30
0.0
  0
VERTEX
  5
4CF
  8
LAYER01
 62
     7
 10
5467.6560515476813
 20
7037.7733803459996
 30
0.0
  0
VERTEX
  5
4D0
  8
LAYER01
 62
     7
 10
5479.5508797961529
 20
7061.5630368429456
 30
0.0
  0
VERTEX
  5
4D1
  8
LAYER01
 62
     7
 10
5495.410650794116
 20
7085.3526933398889
 30
0.0
  0
VERTEX
  5
4D2
  8
LAYER01
 62
     7
 10
5511.27042179208
 20
7105.1774070873416
 30
0.0
  0
VERTEX
  5
4D3
  8
LAYER01
 62
     7
 10
5531.0951355395327
 20
7125.0021208347962
 30
0.0
  0
VERTEX
  5
4D4
  8
LAYER01
 62
     7
 10
5550.9198492869864
 20
7144.826834582248
 30
0.0
  0
VERTEX
  5
4D5
  8
LAYER01
 62
     7
 10
5570.74456303444
 20
7160.6866055802111
 30
0.0
  0
VERTEX
  5
4D6
  8
LAYER01
 62
     7
 10
5594.5342195313842
 20
7176.5463765781742
 30
0.0
  0
VERTEX
  5
4D7
  8
LAYER01
 62
     7
 10
5622.288818777819
 20
7188.4412048266468
 30
0.0
  0
VERTEX
  5
4D8
  8
LAYER01
 62
     7
 10
5646.0784752747632
 20
7196.3710903256278
 30
0.0
  0
VERTEX
  5
4D9
  8
LAYER01
 62
     7
 10
5673.8330745211979
 20
7204.3009758246117
 30
0.0
  0
VERTEX
  5
4DA
  8
LAYER01
 62
     7
 10
5701.5876737676326
 20
7208.2659185741013
 30
0.0
  0
VERTEX
  5
4DB
  8
LAYER01
 62
     7
 10
5733.3072157635588
 20
7208.2659185741013
 30
0.0
  0
VERTEX
  5
4DC
  8
LAYER01
 62
     7
 10
5733.3072157635588
 20
7208.2659185741013
 30
0.0
  0
VERTEX
  5
4DD
  8
LAYER01
 62
     7
 10
5761.0618150099936
 20
7204.3009758246117
 30
0.0
  0
VERTEX
  5
4DE
  8
LAYER01
 62
     7
 10
5788.8164142564283
 20
7200.3360330751193
 30
0.0
  0
VERTEX
  5
4DF
  8
LAYER01
 62
     7
 10
5812.6060707533707
 20
7192.4061475761382
 30
0.0
  0
VERTEX
  5
4E0
  8
LAYER01
 62
     7
 10
5840.3606699998072
 20
7184.4762620771562
 30
0.0
  0
VERTEX
  5
4E1
  8
LAYER01
 62
     7
 10
5860.1853837472609
 20
7172.5814338286846
 30
0.0
  0
VERTEX
  5
4E2
  8
LAYER01
 62
     7
 10
5883.975040244205
 20
7156.7216628307224
 30
0.0
  0
VERTEX
  5
4E3
  8
LAYER01
 62
     7
 10
5903.7997539916578
 20
7140.8618918327593
 30
0.0
  0
VERTEX
  5
4E4
  8
LAYER01
 62
     7
 10
5923.6244677391132
 20
7125.0021208347962
 30
0.0
  0
VERTEX
  5
4E5
  8
LAYER01
 62
     7
 10
5939.4842387370763
 20
7105.1774070873416
 30
0.0
  0
VERTEX
  5
4E6
  8
LAYER01
 62
     7
 10
5955.3440097350358
 20
7081.3877505903993
 30
0.0
  0
VERTEX
  5
4E7
  8
LAYER01
 62
     7
 10
5971.2037807329998
 20
7061.5630368429456
 30
0.0
  0
VERTEX
  5
4E8
  8
LAYER01
 62
     7
 10
5983.0986089814751
 20
7037.7733803459996
 30
0.0
  0
VERTEX
  5
4E9
  8
LAYER01
 62
     7
 10
5991.0284944804544
 20
7010.0187810995658
 30
0.0
  0
VERTEX
  5
4EA
  8
LAYER01
 62
     7
 10
5998.9583799794336
 20
6986.2291246026198
 30
0.0
  0
VERTEX
  5
4EB
  8
LAYER01
 62
     7
 10
6002.923322728926
 20
6958.4745253561869
 30
0.0
  0
VERTEX
  5
4EC
  8
LAYER01
 62
     7
 10
6002.923322728926
 20
6930.7199261097512
 30
0.0
  0
VERTEX
  5
4ED
  8
LAYER01
 62
     7
 10
6002.923322728926
 20
6930.7199261097512
 30
0.0
  0
VERTEX
  5
4EE
  8
LAYER01
 62
     7
 10
6002.923322728926
 20
6899.0003841138259
 30
0.0
  0
VERTEX
  5
4EF
  8
LAYER01
 62
     7
 10
5998.9583799794336
 20
6871.2457848673903
 30
0.0
  0
VERTEX
  5
4F0
  8
LAYER01
 62
     7
 10
5994.9934372299449
 20
6843.4911856209546
 30
0.0
  0
VERTEX
  5
4F1
  8
LAYER01
 62
     7
 10
5983.0986089814751
 20
6819.7015291240123
 30
0.0
  0
VERTEX
  5
4F2
  8
LAYER01
 62
     7
 10
5975.1687234824913
 20
6791.9469298775748
 30
0.0
  0
VERTEX
  5
4F3
  8
LAYER01
 62
     7
 10
5959.3089524845291
 20
6768.1572733806324
 30
0.0
  0
VERTEX
  5
4F4
  8
LAYER01
 62
     7
 10
5943.449181486566
 20
6744.3676168836892
 30
0.0
  0
VERTEX
  5
4F5
  8
LAYER01
 62
     7
 10
5923.6244677391132
 20
6724.5429031362328
 30
0.0
  0
VERTEX
  5
4F6
  8
LAYER01
 62
     7
 10
5903.7997539916578
 20
6704.718189388781
 30
0.0
  0
VERTEX
  5
4F7
  8
LAYER01
 62
     7
 10
5883.975040244205
 20
6688.8584183908179
 30
0.0
  0
VERTEX
  5
4F8
  8
LAYER01
 62
     7
 10
5860.1853837472609
 20
6672.9986473928557
 30
0.0
  0
VERTEX
  5
4F9
  8
LAYER01
 62
     7
 10
5836.3957272503176
 20
6661.103819144384
 30
0.0
  0
VERTEX
  5
4FA
  8
LAYER01
 62
     7
 10
5808.6411280038801
 20
6653.173933645402
 30
0.0
  0
VERTEX
  5
4FB
  8
LAYER01
 62
     7
 10
5780.8865287574472
 20
6645.2440481464209
 30
0.0
  0
VERTEX
  5
4FC
  8
LAYER01
 62
     7
 10
5753.1319295110106
 20
6641.2791053969304
 30
0.0
  0
VERTEX
  5
4FD
  8
LAYER01
 62
     7
 10
5725.3773302645768
 20
6637.3141626474389
 30
0.0
  0
VERTEX
  5
4FE
  8
LAYER01
 62
     7
 10
5725.3773302645768
 20
6637.3141626474389
 30
0.0
  0
SEQEND
  5
4FF
  8
LAYER01
 62
     7
  0
POLYLINE
  5
1AE
  8
LAYER01
 62
     7
 66
     1
 10
0.0
 20
0.0
 30
0.0
 70
     1
  0
VERTEX
  5
500
  8
LAYER01
 62
     7
 10
6042.5727502238333
 20
7351.0038575557674
 30
0.0
  0
VERTEX
  5
501
  8
LAYER01
 62
     7
 10
6462.8566816698476
 20
7351.0038575557674
 30
0.0
  0
VERTEX
  5
502
  8
LAYER01
 62
     7
 10
6462.8566816698476
 20
7351.0038575557674
 30
0.0
  0
VERTEX
  5
503
  8
LAYER01
 62
     7
 10
6510.4359946637369
 20
7343.0739720567844
 30
0.0
  0
VERTEX
  5
504
  8
LAYER01
 62
     7
 10
6554.0503649081338
 20
7323.2492583093299
 30
0.0
  0
VERTEX
  5
505
  8
LAYER01
 62
     7
 10
6589.7348496535496
 20
7299.4596018123866
 30
0.0
  0
VERTEX
  5
506
  8
LAYER01
 62
     7
 10
6621.4543916494758
 20
7267.7400598164604
 30
0.0
  0
VERTEX
  5
507
  8
LAYER01
 62
     7
 10
6649.2089908959097
 20
7236.0205178205333
 30
0.0
  0
VERTEX
  5
508
  8
LAYER01
 62
     7
 10
6669.0337046433651
 20
7196.3710903256278
 30
0.0
  0
VERTEX
  5
509
  8
LAYER01
 62
     7
 10
6680.9285328918368
 20
7148.7917773317413
 30
0.0
  0
VERTEX
  5
50A
  8
LAYER01
 62
     7
 10
6684.8934756413273
 20
7105.1774070873416
 30
0.0
  0
VERTEX
  5
50B
  8
LAYER01
 62
     7
 10
6684.8934756413273
 20
7105.1774070873416
 30
0.0
  0
VERTEX
  5
50C
  8
LAYER01
 62
     7
 10
6680.9285328918368
 20
7057.5980940934542
 30
0.0
  0
VERTEX
  5
50D
  8
LAYER01
 62
     7
 10
6672.9986473928557
 20
7017.948666598546
 30
0.0
  0
VERTEX
  5
50E
  8
LAYER01
 62
     7
 10
6657.1388763948926
 20
6978.2992391036396
 30
0.0
  0
VERTEX
  5
50F
  8
LAYER01
 62
     7
 10
6637.3141626474389
 20
6942.6147543582238
 30
0.0
  0
VERTEX
  5
510
  8
LAYER01
 62
     7
 10
6609.5595634010042
 20
6910.8952123622976
 30
0.0
  0
VERTEX
  5
511
  8
LAYER01
 62
     7
 10
6581.8049641545704
 20
6887.1055558653534
 30
0.0
  0
VERTEX
  5
512
  8
LAYER01
 62
     7
 10
6542.1555366596622
 20
6863.3158993684092
 30
0.0
  0
VERTEX
  5
513
  8
LAYER01
 62
     7
 10
6502.5061091647531
 20
6847.4561283704461
 30
0.0
  0
VERTEX
  5
514
  8
LAYER01
 62
     7
 10
6760.2273878816522
 20
6502.5061091647531
 30
0.0
  0
VERTEX
  5
515
  8
LAYER01
 62
     7
 10
6561.9802504071158
 20
6502.5061091647531
 30
0.0
  0
VERTEX
  5
516
  8
LAYER01
 62
     7
 10
6217.0302312014246
 20
6942.6147543582238
 30
0.0
  0
VERTEX
  5
517
  8
LAYER01
 62
     7
 10
6411.3124259264687
 20
6942.6147543582238
 30
0.0
  0
VERTEX
  5
518
  8
LAYER01
 62
     7
 10
6411.3124259264687
 20
6942.6147543582238
 30
0.0
  0
VERTEX
  5
519
  8
LAYER01
 62
     7
 10
6435.102082423412
 20
6950.5446398572049
 30
0.0
  0
VERTEX
  5
51A
  8
LAYER01
 62
     7
 10
6454.9267961708647
 20
6958.4745253561869
 30
0.0
  0
VERTEX
  5
51B
  8
LAYER01
 62
     7
 10
6470.7865671688287
 20
6974.334296354149
 30
0.0
  0
VERTEX
  5
51C
  8
LAYER01
 62
     7
 10
6486.6463381667909
 20
6990.1940673521131
 30
0.0
  0
VERTEX
  5
51D
  8
LAYER01
 62
     7
 10
6498.5411664152653
 20
7010.0187810995658
 30
0.0
  0
VERTEX
  5
51E
  8
LAYER01
 62
     7
 10
6510.4359946637369
 20
7029.8434948470176
 30
0.0
  0
VERTEX
  5
51F
  8
LAYER01
 62
     7
 10
6514.4009374132283
 20
7053.6331513439627
 30
0.0
  0
VERTEX
  5
520
  8
LAYER01
 62
     7
 10
6514.4009374132283
 20
7077.4228078409069
 30
0.0
  0
VERTEX
  5
521
  8
LAYER01
 62
     7
 10
6514.4009374132283
 20
7077.4228078409069
 30
0.0
  0
VERTEX
  5
522
  8
LAYER01
 62
     7
 10
6514.4009374132283
 20
7101.212464337852
 30
0.0
  0
VERTEX
  5
523
  8
LAYER01
 62
     7
 10
6506.4710519142454
 20
7121.0371780853047
 30
0.0
  0
VERTEX
  5
524
  8
LAYER01
 62
     7
 10
6498.5411664152653
 20
7140.8618918327593
 30
0.0
  0
VERTEX
  5
525
  8
LAYER01
 62
     7
 10
6486.6463381667909
 20
7160.6866055802111
 30
0.0
  0
VERTEX
  5
526
  8
LAYER01
 62
     7
 10
6470.7865671688287
 20
7176.5463765781742
 30
0.0
  0
VERTEX
  5
527
  8
LAYER01
 62
     7
 10
6454.9267961708647
 20
7188.4412048266468
 30
0.0
  0
VERTEX
  5
528
  8
LAYER01
 62
     7
 10
6431.1371396739214
 20
7200.3360330751193
 30
0.0
  0
VERTEX
  5
529
  8
LAYER01
 62
     7
 10
6411.3124259264687
 20
7208.2659185741013
 30
0.0
  0
VERTEX
  5
52A
  8
LAYER01
 62
     7
 10
6185.3106892055002
 20
7208.2659185741013
 30
0.0
  0
VERTEX
  5
52B
  8
LAYER01
 62
     7
 10
6042.5727502238333
 20
7351.0038575557674
 30
0.0
  0
VERTEX
  5
52C
  8
LAYER01
 62
     7
 10
6042.5727502238333
 20
7351.0038575557674
 30
0.0
  0
SEQEND
  5
52D
  8
LAYER01
 62
     7
  0
POLYLINE
  5
1AF
  8
LAYER01
 62
     7
 66
     1
 10
0.0
 20
0.0
 30
0.0
 70
     1
  0
VERTEX
  5
52E
  8
LAYER01
 62
     7
 10
6867.2808421178988
 20
7140.8618918327593
 30
0.0
  0
VERTEX
  5
52F
  8
LAYER01
 62
     7
 10
6867.2808421178988
 20
7140.8618918327593
 30
0.0
  0
VERTEX
  5
530
  8
LAYER01
 62
     7
 10
6887.1055558653534
 20
7144.826834582248
 30
0.0
  0
VERTEX
  5
531
  8
LAYER01
 62
     7
 10
6906.9302696128061
 20
7148.7917773317413
 30
0.0
  0
VERTEX
  5
532
  8
LAYER01
 62
     7
 10
6926.7549833602607
 20
7160.6866055802111
 30
0.0
  0
VERTEX
  5
533
  8
LAYER01
 62
     7
 10
6942.6147543582238
 20
7172.5814338286846
 30
0.0
  0
VERTEX
  5
534
  8
LAYER01
 62
     7
 10
6954.5095826066963
 20
7188.4412048266468
 30
0.0
  0
VERTEX
  5
535
  8
LAYER01
 62
     7
 10
6962.4394681056774
 20
7204.3009758246117
 30
0.0
  0
VERTEX
  5
536
  8
LAYER01
 62
     7
 10
6970.3693536046603
 20
7224.1256895720644
 30
0.0
  0
VERTEX
  5
537
  8
LAYER01
 62
     7
 10
6970.3693536046603
 20
7247.9153460690068
 30
0.0
  0
VERTEX
  5
538
  8
LAYER01
 62
     7
 10
6970.3693536046603
 20
7247.9153460690068
 30
0.0
  0
VERTEX
  5
539
  8
LAYER01
 62
     7
 10
6970.3693536046603
 20
7267.7400598164604
 30
0.0
  0
VERTEX
  5
53A
  8
LAYER01
 62
     7
 10
6962.4394681056774
 20
7287.5647735639131
 30
0.0
  0
VERTEX
  5
53B
  8
LAYER01
 62
     7
 10
6954.5095826066963
 20
7303.4245445618772
 30
0.0
  0
VERTEX
  5
53C
  8
LAYER01
 62
     7
 10
6942.6147543582238
 20
7319.2843155598421
 30
0.0
  0
VERTEX
  5
53D
  8
LAYER01
 62
     7
 10
6926.7549833602607
 20
7331.1791438083146
 30
0.0
  0
VERTEX
  5
53E
  8
LAYER01
 62
     7
 10
6906.9302696128061
 20
7343.0739720567844
 30
0.0
  0
VERTEX
  5
53F
  8
LAYER01
 62
     7
 10
6887.1055558653534
 20
7347.0389148062732
 30
0.0
  0
VERTEX
  5
540
  8
LAYER01
 62
     7
 10
6867.2808421178988
 20
7351.0038575557674
 30
0.0
  0
VERTEX
  5
541
  8
LAYER01
 62
     7
 10
6867.2808421178988
 20
7351.0038575557674
 30
0.0
  0
VERTEX
  5
542
  8
LAYER01
 62
     7
 10
6847.4561283704461
 20
7347.0389148062732
 30
0.0
  0
VERTEX
  5
543
  8
LAYER01
 62
     7
 10
6827.6314146229952
 20
7343.0739720567844
 30
0.0
  0
VERTEX
  5
544
  8
LAYER01
 62
     7
 10
6807.8067008755397
 20
7331.1791438083146
 30
0.0
  0
VERTEX
  5
545
  8
LAYER01
 62
     7
 10
6791.9469298775748
 20
7319.2843155598421
 30
0.0
  0
VERTEX
  5
546
  8
LAYER01
 62
     7
 10
6780.0521016291041
 20
7303.4245445618772
 30
0.0
  0
VERTEX
  5
547
  8
LAYER01
 62
     7
 10
6772.122216130123
 20
7287.5647735639131
 30
0.0
  0
VERTEX
  5
548
  8
LAYER01
 62
     7
 10
6764.1923306311428
 20
7267.7400598164604
 30
0.0
  0
VERTEX
  5
549
  8
LAYER01
 62
     7
 10
6764.1923306311428
 20
7247.9153460690068
 30
0.0
  0
VERTEX
  5
54A
  8
LAYER01
 62
     7
 10
6764.1923306311428
 20
7247.9153460690068
 30
0.0
  0
VERTEX
  5
54B
  8
LAYER01
 62
     7
 10
6764.1923306311428
 20
7224.1256895720644
 30
0.0
  0
VERTEX
  5
54C
  8
LAYER01
 62
     7
 10
6772.122216130123
 20
7204.3009758246117
 30
0.0
  0
VERTEX
  5
54D
  8
LAYER01
 62
     7
 10
6780.0521016291041
 20
7188.4412048266468
 30
0.0
  0
VERTEX
  5
54E
  8
LAYER01
 62
     7
 10
6791.9469298775748
 20
7172.5814338286846
 30
0.0
  0
VERTEX
  5
54F
  8
LAYER01
 62
     7
 10
6807.8067008755397
 20
7160.6866055802111
 30
0.0
  0
VERTEX
  5
550
  8
LAYER01
 62
     7
 10
6827.6314146229952
 20
7148.7917773317413
 30
0.0
  0
VERTEX
  5
551
  8
LAYER01
 62
     7
 10
6847.4561283704461
 20
7144.826834582248
 30
0.0
  0
VERTEX
  5
552
  8
LAYER01
 62
     7
 10
6867.2808421178988
 20
7140.8618918327593
 30
0.0
  0
VERTEX
  5
553
  8
LAYER01
 62
     7
 10
6867.2808421178988
 20
7140.8618918327593
 30
0.0
  0
SEQEND
  5
554
  8
LAYER01
 62
     7
  0
POLYLINE
  5
1B0
  8
LAYER01
 62
     7
 66
     1
 10
0.0
 20
0.0
 30
0.0
 70
     1
  0
VERTEX
  5
555
  8
LAYER01
 62
     7
 10
6867.2808421178988
 20
7335.1440865578052
 30
0.0
  0
VERTEX
  5
556
  8
LAYER01
 62
     7
 10
6867.2808421178988
 20
7335.1440865578052
 30
0.0
  0
VERTEX
  5
557
  8
LAYER01
 62
     7
 10
6883.1406131158628
 20
7331.1791438083146
 30
0.0
  0
VERTEX
  5
558
  8
LAYER01
 62
     7
 10
6899.0003841138259
 20
7327.2142010588213
 30
0.0
  0
VERTEX
  5
559
  8
LAYER01
 62
     7
 10
6914.8601551117881
 20
7319.2843155598421
 30
0.0
  0
VERTEX
  5
55A
  8
LAYER01
 62
     7
 10
6926.7549833602607
 20
7307.3894873113659
 30
0.0
  0
VERTEX
  5
55B
  8
LAYER01
 62
     7
 10
6938.6498116087314
 20
7295.4946590628952
 30
0.0
  0
VERTEX
  5
55C
  8
LAYER01
 62
     7
 10
6946.5796971077143
 20
7279.634888064933
 30
0.0
  0
VERTEX
  5
55D
  8
LAYER01
 62
     7
 10
6954.5095826066963
 20
7263.7751170669699
 30
0.0
  0
VERTEX
  5
55E
  8
LAYER01
 62
     7
 10
6954.5095826066963
 20
7247.9153460690068
 30
0.0
  0
VERTEX
  5
55F
  8
LAYER01
 62
     7
 10
6954.5095826066963
 20
7247.9153460690068
 30
0.0
  0
VERTEX
  5
560
  8
LAYER01
 62
     7
 10
6954.5095826066963
 20
7228.0906323215549
 30
0.0
  0
VERTEX
  5
561
  8
LAYER01
 62
     7
 10
6946.5796971077143
 20
7212.2308613235928
 30
0.0
  0
VERTEX
  5
562
  8
LAYER01
 62
     7
 10
6938.6498116087314
 20
7196.3710903256278
 30
0.0
  0
VERTEX
  5
563
  8
LAYER01
 62
     7
 10
6926.7549833602607
 20
7184.4762620771562
 30
0.0
  0
VERTEX
  5
564
  8
LAYER01
 62
     7
 10
6914.8601551117881
 20
7172.5814338286846
 30
0.0
  0
VERTEX
  5
565
  8
LAYER01
 62
     7
 10
6899.0003841138259
 20
7164.6515483297017
 30
0.0
  0
VERTEX
  5
566
  8
LAYER01
 62
     7
 10
6883.1406131158628
 20
7160.6866055802111
 30
0.0
  0
VERTEX
  5
567
  8
LAYER01
 62
     7
 10
6867.2808421178988
 20
7160.6866055802111
 30
0.0
  0
VERTEX
  5
568
  8
LAYER01
 62
     7
 10
6867.2808421178988
 20
7160.6866055802111
 30
0.0
  0
VERTEX
  5
569
  8
LAYER01
 62
     7
 10
6851.4210711199376
 20
7160.6866055802111
 30
0.0
  0
VERTEX
  5
56A
  8
LAYER01
 62
     7
 10
6831.5963573724839
 20
7164.6515483297017
 30
0.0
  0
VERTEX
  5
56B
  8
LAYER01
 62
     7
 10
6819.7015291240123
 20
7172.5814338286846
 30
0.0
  0
VERTEX
  5
56C
  8
LAYER01
 62
     7
 10
6803.8417581260492
 20
7184.4762620771562
 30
0.0
  0
VERTEX
  5
56D
  8
LAYER01
 62
     7
 10
6795.9118726270653
 20
7196.3710903256278
 30
0.0
  0
VERTEX
  5
56E
  8
LAYER01
 62
     7
 10
6787.9819871280861
 20
7212.2308613235928
 30
0.0
  0
VERTEX
  5
56F
  8
LAYER01
 62
     7
 10
6780.0521016291041
 20
7228.0906323215549
 30
0.0
  0
VERTEX
  5
570
  8
LAYER01
 62
     7
 10
6780.0521016291041
 20
7247.9153460690068
 30
0.0
  0
VERTEX
  5
571
  8
LAYER01
 62
     7
 10
6780.0521016291041
 20
7247.9153460690068
 30
0.0
  0
VERTEX
  5
572
  8
LAYER01
 62
     7
 10
6780.0521016291041
 20
7263.7751170669699
 30
0.0
  0
VERTEX
  5
573
  8
LAYER01
 62
     7
 10
6787.9819871280861
 20
7279.634888064933
 30
0.0
  0
VERTEX
  5
574
  8
LAYER01
 62
     7
 10
6795.9118726270653
 20
7295.4946590628952
 30
0.0
  0
VERTEX
  5
575
  8
LAYER01
 62
     7
 10
6803.8417581260492
 20
7307.3894873113659
 30
0.0
  0
VERTEX
  5
576
  8
LAYER01
 62
     7
 10
6819.7015291240123
 20
7319.2843155598421
 30
0.0
  0
VERTEX
  5
577
  8
LAYER01
 62
     7
 10
6831.5963573724839
 20
7327.2142010588213
 30
0.0
  0
VERTEX
  5
578
  8
LAYER01
 62
     7
 10
6851.4210711199376
 20
7331.1791438083146
 30
0.0
  0
VERTEX
  5
579
  8
LAYER01
 62
     7
 10
6867.2808421178988
 20
7335.1440865578052
 30
0.0
  0
VERTEX
  5
57A
  8
LAYER01
 62
     7
 10
6867.2808421178988
 20
7335.1440865578052
 30
0.0
  0
SEQEND
  5
57B
  8
LAYER01
 62
     7
  0
POLYLINE
  5
1B1
  8
LAYER01
 62
     7
 66
     1
 10
0.0
 20
0.0
 30
0.0
 70
     1
  0
VERTEX
  5
57C
  8
LAYER01
 62
     7
 10
6883.1406131158628
 20
7239.9854605700248
 30
0.0
  0
VERTEX
  5
57D
  8
LAYER01
 62
     7
 10
6883.1406131158628
 20
7239.9854605700248
 30
0.0
  0
VERTEX
  5
57E
  8
LAYER01
 62
     7
 10
6895.0354413643372
 20
7243.950403319518
 30
0.0
  0
VERTEX
  5
57F
  8
LAYER01
 62
     7
 10
6906.9302696128061
 20
7247.9153460690068
 30
0.0
  0
VERTEX
  5
580
  8
LAYER01
 62
     7
 10
6914.8601551117881
 20
7259.8101743174784
 30
0.0
  0
VERTEX
  5
581
  8
LAYER01
 62
     7
 10
6914.8601551117881
 20
7271.705002565951
 30
0.0
  0
VERTEX
  5
582
  8
LAYER01
 62
     7
 10
6914.8601551117881
 20
7271.705002565951
 30
0.0
  0
VERTEX
  5
583
  8
LAYER01
 62
     7
 10
6914.8601551117881
 20
7287.5647735639131
 30
0.0
  0
VERTEX
  5
584
  8
LAYER01
 62
     7
 10
6902.9653268633147
 20
7299.4596018123866
 30
0.0
  0
VERTEX
  5
585
  8
LAYER01
 62
     7
 10
6891.0704986148439
 20
7303.4245445618772
 30
0.0
  0
VERTEX
  5
586
  8
LAYER01
 62
     7
 10
6875.2107276168808
 20
7303.4245445618772
 30
0.0
  0
VERTEX
  5
587
  8
LAYER01
 62
     7
 10
6827.6314146229952
 20
7303.4245445618772
 30
0.0
  0
VERTEX
  5
588
  8
LAYER01
 62
     7
 10
6827.6314146229952
 20
7188.4412048266468
 30
0.0
  0
VERTEX
  5
589
  8
LAYER01
 62
     7
 10
6843.4911856209546
 20
7188.4412048266468
 30
0.0
  0
VERTEX
  5
58A
  8
LAYER01
 62
     7
 10
6843.4911856209546
 20
7239.9854605700248
 30
0.0
  0
VERTEX
  5
58B
  8
LAYER01
 62
     7
 10
6867.2808421178988
 20
7239.9854605700248
 30
0.0
  0
VERTEX
  5
58C
  8
LAYER01
 62
     7
 10
6895.0354413643372
 20
7188.4412048266468
 30
0.0
  0
VERTEX
  5
58D
  8
LAYER01
 62
     7
 10
6914.8601551117881
 20
7188.4412048266468
 30
0.0
  0
VERTEX
  5
58E
  8
LAYER01
 62
     7
 10
6883.1406131158628
 20
7239.9854605700248
 30
0.0
  0
VERTEX
  5
58F
  8
LAYER01
 62
     7
 10
6883.1406131158628
 20
7239.9854605700248
 30
0.0
  0
SEQEND
  5
590
  8
LAYER01
 62
     7
  0
POLYLINE
  5
1B2
  8
LAYER01
 62
     7
 66
     1
 10
0.0
 20
0.0
 30
0.0
 70
     1
  0
VERTEX
  5
591
  8
LAYER01
 62
     7
 10
6871.2457848673903
 20
7287.5647735639131
 30
0.0
  0
VERTEX
  5
592
  8
LAYER01
 62
     7
 10
6871.2457848673903
 20
7287.5647735639131
 30
0.0
  0
VERTEX
  5
593
  8
LAYER01
 62
     7
 10
6891.0704986148439
 20
7283.5998308144244
 30
0.0
  0
VERTEX
  5
594
  8
LAYER01
 62
     7
 10
6899.0003841138259
 20
7279.634888064933
 30
0.0
  0
VERTEX
  5
595
  8
LAYER01
 62
     7
 10
6899.0003841138259
 20
7271.705002565951
 30
0.0
  0
VERTEX
  5
596
  8
LAYER01
 62
     7
 10
6899.0003841138259
 20
7271.705002565951
 30
0.0
  0
VERTEX
  5
597
  8
LAYER01
 62
     7
 10
6895.0354413643372
 20
7263.7751170669699
 30
0.0
  0
VERTEX
  5
598
  8
LAYER01
 62
     7
 10
6887.1055558653534
 20
7259.8101743174784
 30
0.0
  0
VERTEX
  5
599
  8
LAYER01
 62
     7
 10
6863.3158993684092
 20
7255.8452315679897
 30
0.0
  0
VERTEX
  5
59A
  8
LAYER01
 62
     7
 10
6843.4911856209546
 20
7255.8452315679897
 30
0.0
  0
VERTEX
  5
59B
  8
LAYER01
 62
     7
 10
6843.4911856209546
 20
7287.5647735639131
 30
0.0
  0
VERTEX
  5
59C
  8
LAYER01
 62
     7
 10
6871.2457848673903
 20
7287.5647735639131
 30
0.0
  0
VERTEX
  5
59D
  8
LAYER01
 62
     7
 10
6871.2457848673903
 20
7287.5647735639131
 30
0.0
  0
SEQEND
  5
59E
  8
LAYER01
 62
     7
  0
ENDBLK
  5
1B3
  8
0
 62
     7
  0
BLOCK
  8
0
  2
*U4
 70
     1
 10
0.0
 20
0.0
 30
0.0
  3
*U4
  1

  0
SOLID
  5
275
  8
2
  6
CONTINUOUS
 10
967.82282784692575
 20
456.54326697774258
 30
0.0
 11
967.82282784692575
 21
456.40465743553779
 31
0.0
 12
1003.800303702473
 22
456.40465743553779
 32
0.0
 13
1003.800303702473
 23
456.40465743553779
 33
0.0
210
0.0
220
0.0
230
1.0
  0
SOLID
  5
276
  8
2
  6
CONTINUOUS
 10
-967.82282784692575
 20
456.54326697774258
 30
0.0
 11
-1002.322827846925
 21
456.54326697774258
 31
0.0
 12
-1003.800303702473
 22
456.40465743553779
 32
0.0
 13
-1003.800303702473
 23
456.40465743553779
 33
0.0
210
0.0
220
0.0
230
-1.0
  0
SOLID
  5
277
  8
2
  6
CONTINUOUS
 10
967.82282784692575
 20
456.40465743553779
 30
0.0
 11
967.82282784692575
 21
455.99492582227288
 31
0.0
 12
1005.226581204928
 22
455.99492582227288
 32
0.0
 13
1005.226581204928
 23
455.99492582227288
 33
0.0
210
0.0
220
0.0
230
1.0
  0
SOLID
  5
278
  8
2
  6
CONTINUOUS
 10
-967.82282784692575
 20
456.40465743553779
 30
0.0
 11
-1003.800303702473
 21
456.40465743553779
 31
0.0
 12
-1005.226581204928
 22
455.99492582227288
 32
0.0
 13
-1005.226581204928
 23
455.99492582227288
 33
0.0
210
0.0
220
0.0
230
-1.0
  0
SOLID
  5
279
  8
2
  6
CONTINUOUS
 10
967.82282784692575
 20
455.99492582227288
 30
0.0
 11
967.82282784692575
 21
454.61481681344031
 31
0.0
 12
1008.793953257681
 22
454.61481681344031
 32
0.0
 13
1008.793953257681
 23
454.61481681344031
 33
0.0
  0
SOLID
  5
27A
  8
2
  6
CONTINUOUS
 10
-967.82282784692575
 20
455.99492582227288
 30
0.0
 11
-1005.226581204928
 21
455.99492582227288
 31
0.0
 12
-1008.793953257681
 22
454.61481681344031
 32
0.0
 13
-1008.793953257681
 23
454.61481681344031
 33
0.0
210
0.0
220
0.0
230
-1.0
  0
SOLID
  5
27B
  8
2
  6
CONTINUOUS
 10
967.82282784692575
 20
454.61481681344031
 30
0.0
 11
967.82282784692575
 21
451.67203369418161
 31
0.0
 12
1012.447365735761
 22
451.67203369418161
 32
0.0
 13
1012.447365735761
 23
451.67203369418161
 33
0.0
210
0.0
220
0.0
230
1.0
  0
SOLID
  5
27C
  8
2
  6
CONTINUOUS
 10
-967.82282784692575
 20
454.61481681344031
 30
0.0
 11
-1008.793953257681
 21
454.61481681344031
 31
0.0
 12
-1012.447365735761
 22
451.67203369418161
 32
0.0
 13
-1012.447365735761
 23
451.67203369418161
 33
0.0
210
0.0
220
0.0
230
-1.0
  0
SOLID
  5
27D
  8
2
  6
CONTINUOUS
 10
967.82282784692575
 20
451.67203369418161
 30
0.0
 11
967.82282784692575
 21
451.54326697774258
 31
0.0
 12
1012.486855709559
 22
451.54326697774258
 32
0.0
 13
1012.486855709559
 23
451.54326697774258
 33
0.0
210
0.0
220
0.0
230
1.0
  0
SOLID
  5
27E
  8
2
  6
CONTINUOUS
 10
-967.82282784692575
 20
451.67203369418161
 30
0.0
 11
-1012.447365735761
 21
451.67203369418161
 31
0.0
 12
-1012.486855709559
 22
451.54326697774258
 32
0.0
 13
-1012.486855709559
 23
451.54326697774258
 33
0.0
210
0.0
220
0.0
230
-1.0
  0
SOLID
  5
27F
  8
2
  6
CONTINUOUS
 10
1003.113917315287
 20
451.54326697774258
 30
0.0
 11
1003.75748767343
 21
451.4734234913301
 31
0.0
 12
1012.508275199972
 22
451.4734234913301
 32
0.0
 13
1012.508275199972
 23
451.4734234913301
 33
0.0
210
0.0
220
0.0
230
1.0
  0
SOLID
  5
280
  8
2
  6
CONTINUOUS
 10
-1003.113917315287
 20
451.54326697774258
 30
0.0
 11
-1012.486855709559
 21
451.54326697774258
 31
0.0
 12
-1012.508275199972
 22
451.4734234913301
 32
0.0
 13
-1012.508275199972
 23
451.4734234913301
 33
0.0
210
0.0
220
0.0
230
-1.0
  0
SOLID
  5
281
  8
2
  6
CONTINUOUS
 10
1003.75748767343
 20
451.4734234913301
 30
0.0
 11
1004.371091899864
 21
451.2671451071555
 31
0.0
 12
1012.5715363299551
 22
451.2671451071555
 32
0.0
 13
1012.5715363299551
 23
451.2671451071555
 33
0.0
210
0.0
220
0.0
230
1.0
  0
SOLID
  5
282
  8
2
  6
CONTINUOUS
 10
-1003.75748767343
 20
451.4734234913301
 30
0.0
 11
-1012.508275199972
 21
451.4734234913301
 31
0.0
 12
-1012.5715363299551
 22
451.2671451071555
 32
0.0
 13
-1012.5715363299551
 23
451.2671451071555
 33
0.0
210
0.0
220
0.0
230
-1.0
  0
SOLID
  5
283
  8
2
  6
CONTINUOUS
 10
1004.371091899864
 20
451.2671451071555
 30
0.0
 11
1007.041243244923
 21
450.03508235641038
 31
0.0
 12
1012.949383393925
 22
450.03508235641038
 32
0.0
 13
1012.949383393925
 23
450.03508235641038
 33
0.0
210
0.0
220
0.0
230
1.0
  0
SOLID
  5
284
  8
2
  6
CONTINUOUS
 10
-1004.371091899864
 20
451.2671451071555
 30
0.0
 11
-1012.5715363299551
 21
451.2671451071555
 31
0.0
 12
-1012.949383393925
 22
450.03508235641038
 32
0.0
 13
-1012.949383393925
 23
450.03508235641038
 33
0.0
210
0.0
220
0.0
230
-1.0
  0
SOLID
  5
285
  8
2
  6
CONTINUOUS
 10
1007.041243244923
 20
450.03508235641038
 30
0.0
 11
1008.330951195663
 21
448.95319796700443
 31
0.0
 12
1013.281173994563
 22
448.95319796700443
 32
0.0
 13
1013.281173994563
 23
448.95319796700443
 33
0.0
210
0.0
220
0.0
230
1.0
  0
SOLID
  5
286
  8
2
  6
CONTINUOUS
 10
-1007.041243244923
 20
450.03508235641038
 30
0.0
 11
-1012.949383393925
 21
450.03508235641038
 31
0.0
 12
-1013.281173994563
 22
448.95319796700443
 32
0.0
 13
-1013.281173994563
 23
448.95319796700443
 33
0.0
210
0.0
220
0.0
230
-1.0
  0
SOLID
  5
287
  8
2
  6
CONTINUOUS
 10
1008.330951195663
 20
448.95319796700443
 30
0.0
 11
1008.822827846926
 21
447.3432669777427
 31
0.0
 12
1013.7749050948011
 22
447.3432669777427
 32
0.0
 13
1013.7749050948011
 23
447.3432669777427
 33
0.0
210
0.0
220
0.0
230
1.0
  0
SOLID
  5
288
  8
2
  6
CONTINUOUS
 10
-1008.330951195663
 20
448.95319796700443
 30
0.0
 11
-1013.281173994563
 21
448.95319796700443
 31
0.0
 12
-1013.7749050948011
 22
447.3432669777427
 32
0.0
 13
-1013.7749050948011
 23
447.3432669777427
 33
0.0
210
0.0
220
0.0
230
-1.0
  0
SOLID
  5
289
  8
2
  6
CONTINUOUS
 10
1008.822827846926
 20
447.3432669777427
 30
0.0
 11
1008.828355165443
 21
447.18700312541858
 31
0.0
 12
1013.822827846925
 22
447.18700312541858
 32
0.0
 13
1013.822827846925
 23
447.18700312541858
 33
0.0
210
0.0
220
0.0
230
1.0
  0
SOLID
  5
28A
  8
2
  6
CONTINUOUS
 10
-1008.822827846926
 20
447.3432669777427
 30
0.0
 11
-1013.7749050948011
 21
447.3432669777427
 31
0.0
 12
-1013.822827846925
 22
447.18700312541858
 32
0.0
 13
-1013.822827846925
 23
447.18700312541858
 33
0.0
210
0.0
220
0.0
230
-1.0
  0
SOLID
  5
28B
  8
2
  6
CONTINUOUS
 10
1008.828355165443
 20
447.18700312541858
 30
0.0
 11
1010.79734713798
 21
391.52126396961648
 31
0.0
 12
1016.683888874275
 22
391.52126396961648
 32
0.0
 13
1016.683888874275
 23
391.52126396961648
 33
0.0
210
0.0
220
0.0
230
1.0
  0
SOLID
  5
28C
  8
2
  6
CONTINUOUS
 10
-1008.828355165443
 20
447.18700312541858
 30
0.0
 11
-1013.822827846925
 21
447.18700312541858
 31
0.0
 12
-1016.683888874275
 22
391.52126396961648
 32
0.0
 13
-1016.683888874275
 23
391.52126396961648
 33
0.0
210
0.0
220
0.0
230
-1.0
  0
SOLID
  5
28D
  8
2
  6
CONTINUOUS
 10
1010.79734713798
 20
391.52126396961648
 30
0.0
 11
1010.81284039043
 21
391.0832513410316
 31
0.0
 12
1016.751416002028
 22
391.0832513410316
 32
0.0
 13
1016.751416002028
 23
391.0832513410316
 33
0.0
210
0.0
220
0.0
230
1.0
  0
SOLID
  5
28E
  8
2
  6
CONTINUOUS
 10
-1010.79734713798
 20
391.52126396961648
 30
0.0
 11
-1016.683888874275
 21
391.52126396961648
 31
0.0
 12
-1016.751416002028
 22
391.0832513410316
 32
0.0
 13
-1016.751416002028
 23
391.0832513410316
 33
0.0
210
0.0
220
0.0
230
-1.0
  0
SOLID
  5
28F
  8
2
  6
CONTINUOUS
 10
1010.81284039043
 20
391.0832513410316
 30
0.0
 11
1016.236477812996
 21
358.965317139908
 31
0.0
 12
1021.702944118809
 22
358.965317139908
 32
0.0
 13
1021.702944118809
 23
358.965317139908
 33
0.0
210
0.0
220
0.0
230
1.0
  0
SOLID
  5
290
  8
2
  6
CONTINUOUS
 10
-1010.81284039043
 20
391.0832513410316
 30
0.0
 11
-1016.751416002028
 21
391.0832513410316
 31
0.0
 12
-1021.702944118809
 22
358.965317139908
 32
0.0
 13
-1021.702944118809
 23
358.965317139908
 33
0.0
210
0.0
220
0.0
230
-1.0
  0
SOLID
  5
291
  8
2
  6
CONTINUOUS
 10
1016.236477812996
 20
358.965317139908
 30
0.0
 11
1016.51650009984
 21
357.30706886794542
 31
0.0
 12
1022.446678899867
 22
357.30706886794542
 32
0.0
 13
1022.446678899867
 23
357.30706886794542
 33
0.0
210
0.0
220
0.0
230
1.0
  0
SOLID
  5
292
  8
2
  6
CONTINUOUS
 10
-1016.236477812996
 20
358.965317139908
 30
0.0
 11
-1021.702944118809
 21
358.965317139908
 31
0.0
 12
-1022.446678899867
 22
357.30706886794542
 32
0.0
 13
-1022.446678899867
 23
357.30706886794542
 33
0.0
210
0.0
220
0.0
230
-1.0
  0
SOLID
  5
293
  8
2
  6
CONTINUOUS
 10
1016.51650009984
 20
357.30706886794542
 30
0.0
 11
1029.5923736467969
 21
328.90933335947631
 31
0.0
 12
1035.1832419091729
 22
328.90933335947631
 32
0.0
 13
1035.1832419091729
 23
328.90933335947631
 33
0.0
210
0.0
220
0.0
230
1.0
  0
SOLID
  5
294
  8
2
  6
CONTINUOUS
 10
-1016.51650009984
 20
357.30706886794542
 30
0.0
 11
-1022.446678899867
 21
357.30706886794542
 31
0.0
 12
-1035.1832419091729
 22
328.90933335947631
 32
0.0
 13
-1035.1832419091729
 23
328.90933335947631
 33
0.0
210
0.0
220
0.0
230
-1.0
  0
SOLID
  5
295
  8
2
  6
CONTINUOUS
 10
1029.5923736467969
 20
328.90933335947631
 30
0.0
 11
1030.8432740789151
 21
326.19267053070519
 31
0.0
 12
1037.426586379021
 22
326.19267053070519
 32
0.0
 13
1037.426586379021
 23
326.19267053070519
 33
0.0
210
0.0
220
0.0
230
1.0
  0
SOLID
  5
296
  8
2
  6
CONTINUOUS
 10
-1029.5923736467969
 20
328.90933335947631
 30
0.0
 11
-1035.1832419091729
 21
328.90933335947631
 31
0.0
 12
-1037.426586379021
 22
326.19267053070519
 32
0.0
 13
-1037.426586379021
 23
326.19267053070519
 33
0.0
210
0.0
220
0.0
230
-1.0
  0
SOLID
  5
297
  8
2
  6
CONTINUOUS
 10
1030.8432740789151
 20
326.19267053070519
 30
0.0
 11
1049.7844535507461
 21
303.50949453471873
 31
0.0
 12
1056.157721097054
 22
303.50949453471873
 32
0.0
 13
1056.157721097054
 23
303.50949453471873
 33
0.0
210
0.0
220
0.0
230
1.0
  0
SOLID
  5
298
  8
2
  6
CONTINUOUS
 10
-1030.8432740789151
 20
326.19267053070519
 30
0.0
 11
-1037.426586379021
 21
326.19267053070519
 31
0.0
 12
-1056.157721097054
 22
303.50949453471873
 32
0.0
 13
-1056.157721097054
 23
303.50949453471873
 33
0.0
210
0.0
220
0.0
230
-1.0
  0
SOLID
  5
299
  8
2
  6
CONTINUOUS
 10
1049.7844535507461
 20
303.50949453471873
 30
0.0
 11
1052.798739460351
 21
299.89970994387608
 31
0.0
 12
1061.3018135366881
 22
299.89970994387608
 32
0.0
 13
1061.3018135366881
 23
299.89970994387608
 33
0.0
210
0.0
220
0.0
230
1.0
  0
SOLID
  5
29A
  8
2
  6
CONTINUOUS
 10
-1049.7844535507461
 20
303.50949453471873
 30
0.0
 11
-1056.157721097054
 21
303.50949453471873
 31
0.0
 12
-1061.3018135366881
 22
299.89970994387608
 32
0.0
 13
-1061.3018135366881
 23
299.89970994387608
 33
0.0
210
0.0
220
0.0
230
-1.0
  0
SOLID
  5
29B
  8
2
  6
CONTINUOUS
 10
1052.798739460351
 20
299.89970994387608
 30
0.0
 11
1074.667810635817
 21
284.58795605736839
 31
0.0
 12
1083.1216965305209
 22
284.58795605736839
 32
0.0
 13
1083.1216965305209
 23
284.58795605736839
 33
0.0
210
0.0
220
0.0
230
1.0
  0
SOLID
  5
29C
  8
2
  6
CONTINUOUS
 10
-1052.798739460351
 20
299.89970994387608
 30
0.0
 11
-1061.3018135366881
 21
299.89970994387608
 31
0.0
 12
-1083.1216965305209
 22
284.58795605736839
 32
0.0
 13
-1083.1216965305209
 23
284.58795605736839
 33
0.0
210
0.0
220
0.0
230
-1.0
  0
SOLID
  5
29D
  8
2
  6
CONTINUOUS
 10
1074.667810635817
 20
284.58795605736839
 30
0.0
 11
1080.8589651156531
 21
280.25318422787512
 31
0.0
 12
1095.2507629018539
 22
280.25318422787512
 32
0.0
 13
1095.2507629018539
 23
280.25318422787512
 33
0.0
210
0.0
220
0.0
230
1.0
  0
SOLID
  5
29E
  8
2
  6
CONTINUOUS
 10
-1074.667810635817
 20
284.58795605736839
 30
0.0
 11
-1083.1216965305209
 21
284.58795605736839
 31
0.0
 12
-1095.2507629018539
 22
280.25318422787512
 32
0.0
 13
-1095.2507629018539
 23
280.25318422787512
 33
0.0
210
0.0
220
0.0
230
-1.0
  0
SOLID
  5
29F
  8
2
  6
CONTINUOUS
 10
1080.8589651156531
 20
280.25318422787512
 30
0.0
 11
1099.5503590486919
 21
273.50212746038608
 31
0.0
 12
1114.1408034461749
 22
273.50212746038608
 32
0.0
 13
1114.1408034461749
 23
273.50212746038608
 33
0.0
210
0.0
220
0.0
230
1.0
  0
SOLID
  5
2A0
  8
2
  6
CONTINUOUS
 10
-1080.8589651156531
 20
280.25318422787512
 30
0.0
 11
-1095.2507629018539
 21
280.25318422787512
 31
0.0
 12
-1114.1408034461749
 22
273.50212746038608
 32
0.0
 13
-1114.1408034461749
 23
273.50212746038608
 33
0.0
210
0.0
220
0.0
230
-1.0
  0
SOLID
  5
2A1
  8
2
  6
CONTINUOUS
 10
1099.5503590486919
 20
273.50212746038608
 30
0.0
 11
1112.779381883287
 21
268.72399884918082
 31
0.0
 12
1124.2788636557791
 22
268.72399884918082
 32
0.0
 13
1124.2788636557791
 23
268.72399884918082
 33
0.0
210
0.0
220
0.0
230
1.0
  0
SOLID
  5
2A2
  8
2
  6
CONTINUOUS
 10
-1099.5503590486919
 20
273.50212746038608
 30
0.0
 11
-1114.1408034461749
 21
273.50212746038608
 31
0.0
 12
-1124.2788636557791
 22
268.72399884918082
 32
0.0
 13
-1124.2788636557791
 23
268.72399884918082
 33
0.0
210
0.0
220
0.0
230
-1.0
  0
SOLID
  5
2A3
  8
2
  6
CONTINUOUS
 10
1112.779381883287
 20
268.72399884918082
 30
0.0
 11
1113.0762878727701
 21
268.61676076962459
 31
0.0
 12
1124.3652676504939
 22
268.61676076962459
 32
0.0
 13
1124.3652676504939
 23
268.61676076962459
 33
0.0
210
0.0
220
0.0
230
1.0
  0
SOLID
  5
2A4
  8
2
  6
CONTINUOUS
 10
-1112.779381883287
 20
268.72399884918082
 30
0.0
 11
-1124.2788636557791
 21
268.72399884918082
 31
0.0
 12
-1124.3652676504939
 22
268.61676076962459
 32
0.0
 13
-1124.3652676504939
 23
268.61676076962459
 33
0.0
210
0.0
220
0.0
230
-1.0
  0
SOLID
  5
2A5
  8
2
  6
CONTINUOUS
 10
1113.0762878727701
 20
268.61676076962459
 30
0.0
 11
1122.9047838458689
 21
263.27635247542042
 31
0.0
 12
1128.6681478581399
 22
263.27635247542042
 32
0.0
 13
1128.6681478581399
 23
263.27635247542042
 33
0.0
210
0.0
220
0.0
230
1.0
  0
SOLID
  5
2A6
  8
2
  6
CONTINUOUS
 10
-1113.0762878727701
 20
268.61676076962459
 30
0.0
 11
-1124.3652676504939
 21
268.61676076962459
 31
0.0
 12
-1128.6681478581399
 22
263.27635247542042
 32
0.0
 13
-1128.6681478581399
 23
263.27635247542042
 33
0.0
210
0.0
220
0.0
230
-1.0
  0
SOLID
  5
2A7
  8
2
  6
CONTINUOUS
 10
1122.9047838458689
 20
263.27635247542042
 30
0.0
 11
1124.723044704283
 21
259.99672616393138
 31
0.0
 12
1131.3106123227949
 22
259.99672616393138
 32
0.0
 13
1131.3106123227949
 23
259.99672616393138
 33
0.0
210
0.0
220
0.0
230
1.0
  0
SOLID
  5
2A8
  8
2
  6
CONTINUOUS
 10
-1122.9047838458689
 20
263.27635247542042
 30
0.0
 11
-1128.6681478581399
 21
263.27635247542042
 31
0.0
 12
-1131.3106123227949
 22
259.99672616393138
 32
0.0
 13
-1131.3106123227949
 23
259.99672616393138
 33
0.0
210
0.0
220
0.0
230
-1.0
  0
SOLID
  5
2A9
  8
2
  6
CONTINUOUS
 10
1124.723044704283
 20
259.99672616393138
 30
0.0
 11
1128.3284688225631
 21
253.49356477887801
 31
0.0
 12
1132.8063726918499
 22
253.49356477887801
 32
0.0
 13
1132.8063726918499
 23
253.49356477887801
 33
0.0
210
0.0
220
0.0
230
1.0
  0
SOLID
  5
2AA
  8
2
  6
CONTINUOUS
 10
-1124.723044704283
 20
259.99672616393138
 30
0.0
 11
-1131.3106123227949
 21
259.99672616393138
 31
0.0
 12
-1132.8063726918499
 22
253.49356477887801
 32
0.0
 13
-1132.8063726918499
 23
253.49356477887801
 33
0.0
210
0.0
220
0.0
230
-1.0
  0
SOLID
  5
2AB
  8
2
  6
CONTINUOUS
 10
1128.3284688225631
 20
253.49356477887801
 30
0.0
 11
1127.5649055220231
 21
249.07429278125099
 31
0.0
 12
1133.8228278469251
 22
249.07429278125099
 32
0.0
 13
1133.8228278469251
 23
249.07429278125099
 33
0.0
210
0.0
220
0.0
230
1.0
  0
SOLID
  5
2AC
  8
2
  6
CONTINUOUS
 10
-1128.3284688225631
 20
253.49356477887801
 30
0.0
 11
-1132.8063726918499
 21
253.49356477887801
 31
0.0
 12
-1133.8228278469251
 22
249.07429278125099
 32
0.0
 13
-1133.8228278469251
 23
249.07429278125099
 33
0.0
210
0.0
220
0.0
230
-1.0
  0
SOLID
  5
2AD
  8
2
  6
CONTINUOUS
 10
1127.5649055220231
 20
249.07429278125099
 30
0.0
 11
1127.0216136980951
 21
245.9298850519514
 31
0.0
 12
1133.8228278469251
 22
245.9298850519514
 32
0.0
 13
1133.8228278469251
 23
245.9298850519514
 33
0.0
210
0.0
220
0.0
230
1.0
  0
SOLID
  5
2AE
  8
2
  6
CONTINUOUS
 10
-1127.5649055220231
 20
249.07429278125099
 30
0.0
 11
-1133.8228278469251
 21
249.07429278125099
 31
0.0
 12
-1133.8228278469251
 22
245.9298850519514
 32
0.0
 13
-1133.8228278469251
 23
245.9298850519514
 33
0.0
210
0.0
220
0.0
230
-1.0
  0
SOLID
  5
2AF
  8
2
  6
CONTINUOUS
 10
1127.0216136980951
 20
245.9298850519514
 30
0.0
 11
1120.7228278469249
 21
241.54326697774269
 31
0.0
 12
1133.8228278469251
 22
241.54326697774269
 32
0.0
 13
1133.8228278469251
 23
241.54326697774269
 33
0.0
210
0.0
220
0.0
230
1.0
  0
SOLID
  5
2B0
  8
2
  6
CONTINUOUS
 10
-1127.0216136980951
 20
245.9298850519514
 30
0.0
 11
-1133.8228278469251
 21
245.9298850519514
 31
0.0
 12
-1133.8228278469251
 22
241.54326697774269
 32
0.0
 13
-1133.8228278469251
 23
241.54326697774269
 33
0.0
210
0.0
220
0.0
230
-1.0
  0
SOLID
  5
2B1
  8
2
  6
CONTINUOUS
 10
1120.7228278469249
 20
241.54326697774269
 30
0.0
 11
1108.375964310346
 21
238.78727065717169
 31
0.0
 12
1133.8228278469251
 22
238.78727065717169
 32
0.0
 13
1133.8228278469251
 23
238.78727065717169
 33
0.0
210
0.0
220
0.0
230
1.0
  0
SOLID
  5
2B2
  8
2
  6
CONTINUOUS
 10
-1120.7228278469249
 20
241.54326697774269
 30
0.0
 11
-1133.8228278469251
 21
241.54326697774269
 31
0.0
 12
-1133.8228278469251
 22
238.78727065717169
 32
0.0
 13
-1133.8228278469251
 23
238.78727065717169
 33
0.0
210
0.0
220
0.0
230
-1.0
  0
SOLID
  5
2B3
  8
2
  6
CONTINUOUS
 10
1108.375964310346
 20
238.78727065717169
 30
0.0
 11
1099.0588347388159
 21
233.03491281891749
 31
0.0
 12
1133.8228278469251
 22
233.03491281891749
 32
0.0
 13
1133.8228278469251
 23
233.03491281891749
 33
0.0
  0
SOLID
  5
2B4
  8
2
  6
CONTINUOUS
 10
-1108.375964310346
 20
238.78727065717169
 30
0.0
 11
-1133.8228278469251
 21
238.78727065717169
 31
0.0
 12
-1133.8228278469251
 22
233.03491281891749
 32
0.0
 13
-1133.8228278469251
 23
233.03491281891749
 33
0.0
210
0.0
220
0.0
230
-1.0
  0
SOLID
  5
2B5
  8
2
  6
CONTINUOUS
 10
1099.0588347388159
 20
233.03491281891749
 30
0.0
 11
1094.167157627917
 21
223.2384839188172
 31
0.0
 12
1133.8228278469251
 22
223.2384839188172
 32
0.0
 13
1133.8228278469251
 23
223.2384839188172
 33
0.0
210
0.0
220
0.0
230
1.0
  0
SOLID
  5
2B6
  8
2
  6
CONTINUOUS
 10
-1099.0588347388159
 20
233.03491281891749
 30
0.0
 11
-1133.8228278469251
 21
233.03491281891749
 31
0.0
 12
-1133.8228278469251
 22
223.2384839188172
 32
0.0
 13
-1133.8228278469251
 23
223.2384839188172
 33
0.0
210
0.0
220
0.0
230
-1.0
  0
SOLID
  5
2B7
  8
2
  6
CONTINUOUS
 10
1094.167157627917
 20
223.2384839188172
 30
0.0
 11
1094.506054950509
 21
219.54326697774269
 31
0.0
 12
1133.8228278469251
 22
219.54326697774269
 32
0.0
 13
1133.8228278469251
 23
219.54326697774269
 33
0.0
  0
SOLID
  5
2B8
  8
2
  6
CONTINUOUS
 10
-1094.167157627917
 20
223.2384839188172
 30
0.0
 11
-1133.8228278469251
 21
223.2384839188172
 31
0.0
 12
-1133.8228278469251
 22
219.54326697774269
 32
0.0
 13
-1133.8228278469251
 23
219.54326697774269
 33
0.0
210
0.0
220
0.0
230
-1.0
  0
SOLID
  5
2B9
  8
2
  6
CONTINUOUS
 10
1094.506054950509
 20
219.54326697774269
 30
0.0
 11
1095.1671951432129
 21
212.33442737457619
 31
0.0
 12
1131.7710679574261
 22
212.33442737457619
 32
0.0
 13
1131.7710679574261
 23
212.33442737457619
 33
0.0
  0
SOLID
  5
2BA
  8
2
  6
CONTINUOUS
 10
-1094.506054950509
 20
219.54326697774269
 30
0.0
 11
-1133.8228278469251
 21
219.54326697774269
 31
0.0
 12
-1131.7710679574261
 22
212.33442737457619
 32
0.0
 13
-1131.7710679574261
 23
212.33442737457619
 33
0.0
210
0.0
220
0.0
230
-1.0
  0
SOLID
  5
2BB
  8
2
  6
CONTINUOUS
 10
1095.1671951432129
 20
212.33442737457619
 30
0.0
 11
1097.6723723911541
 21
209.01170778200341
 31
0.0
 12
1130.825364743125
 22
209.01170778200341
 32
0.0
 13
1130.825364743125
 23
209.01170778200341
 33
0.0
  0
SOLID
  5
2BC
  8
2
  6
CONTINUOUS
 10
-1095.1671951432129
 20
212.33442737457619
 30
0.0
 11
-1131.7710679574261
 21
212.33442737457619
 31
0.0
 12
-1130.825364743125
 22
209.01170778200341
 32
0.0
 13
-1130.825364743125
 23
209.01170778200341
 33
0.0
210
0.0
220
0.0
230
-1.0
  0
SOLID
  5
2BD
  8
2
  6
CONTINUOUS
 10
1097.6723723911541
 20
209.01170778200341
 30
0.0
 11
1101.7591897292509
 21
203.5911939035056
 31
0.0
 12
1124.8762712256109
 22
203.5911939035056
 32
0.0
 13
1124.8762712256109
 23
203.5911939035056
 33
0.0
210
0.0
220
0.0
230
1.0
  0
SOLID
  5
2BE
  8
2
  6
CONTINUOUS
 10
-1097.6723723911541
 20
209.01170778200341
 30
0.0
 11
-1130.825364743125
 21
209.01170778200341
 31
0.0
 12
-1124.8762712256109
 22
203.5911939035056
 32
0.0
 13
-1124.8762712256109
 23
203.5911939035056
 33
0.0
210
0.0
220
0.0
230
-1.0
  0
SOLID
  5
2BF
  8
2
  6
CONTINUOUS
 10
-1106.7947139489861
 20
201.63694459773561
 30
0.0
 11
-1122.7314539375891
 21
201.63694459773561
 31
0.0
 12
-1111.967215330822
 22
199.6295354793499
 32
0.0
 13
-1111.967215330822
 23
199.6295354793499
 33
0.0
210
0.0
220
0.0
230
-1.0
  0
SOLID
  5
2C0
  8
2
  6
CONTINUOUS
 10
1101.7591897292509
 20
203.5911939035056
 30
0.0
 11
1106.7947139489861
 21
201.63694459773561
 31
0.0
 12
1122.7314539375891
 22
201.63694459773561
 32
0.0
 13
1122.7314539375891
 23
201.63694459773561
 33
0.0
210
0.0
220
0.0
230
1.0
  0
SOLID
  5
2C1
  8
2
  6
CONTINUOUS
 10
-1101.7591897292509
 20
203.5911939035056
 30
0.0
 11
-1124.8762712256109
 21
203.5911939035056
 31
0.0
 12
-1122.7314539375891
 22
201.63694459773561
 32
0.0
 13
-1122.7314539375891
 23
201.63694459773561
 33
0.0
210
0.0
220
0.0
230
-1.0
  0
LINE
  5
2C2
  8
2
  6
CONTINUOUS
 10
967.82282784692575
 20
456.54326697774258
 30
0.0
 11
967.82282784692575
 21
456.40465743553779
 31
0.0
  0
LINE
  5
2C3
  8
2
  6
CONTINUOUS
 10
1002.322827846925
 20
456.54326697774258
 30
0.0
 11
1003.800303702473
 21
456.40465743553779
 31
0.0
  0
LINE
  5
2C4
  8
2
  6
CONTINUOUS
 10
967.82282784692575
 20
456.40465743553779
 30
0.0
 11
967.82282784692575
 21
455.99492582227288
 31
0.0
  0
LINE
  5
2C5
  8
2
  6
CONTINUOUS
 10
1003.800303702473
 20
456.40465743553779
 30
0.0
 11
1005.226581204928
 21
455.99492582227288
 31
0.0
  0
LINE
  5
2C6
  8
2
  6
CONTINUOUS
 10
967.82282784692575
 20
455.99492582227288
 30
0.0
 11
967.82282784692575
 21
454.61481681344031
 31
0.0
  0
LINE
  5
2C7
  8
2
  6
CONTINUOUS
 10
1005.226581204928
 20
455.99492582227288
 30
0.0
 11
1008.793953257681
 21
454.61481681344031
 31
0.0
  0
LINE
  5
2C8
  8
2
  6
CONTINUOUS
 10
967.82282784692575
 20
454.61481681344031
 30
0.0
 11
967.82282784692575
 21
451.67203369418161
 31
0.0
  0
LINE
  5
2C9
  8
2
  6
CONTINUOUS
 10
1008.793953257681
 20
454.61481681344031
 30
0.0
 11
1012.447365735761
 21
451.67203369418161
 31
0.0
  0
LINE
  5
2CA
  8
2
  6
CONTINUOUS
 10
967.82282784692575
 20
451.67203369418161
 30
0.0
 11
967.82282784692575
 21
451.54326697774258
 31
0.0
  0
LINE
  5
2CB
  8
2
  6
CONTINUOUS
 10
1012.447365735761
 20
451.67203369418161
 30
0.0
 11
1012.486855709559
 21
451.54326697774258
 31
0.0
  0
LINE
  5
2CC
  8
2
  6
CONTINUOUS
 10
1003.113917315287
 20
451.54326697774258
 30
0.0
 11
1003.75748767343
 21
451.4734234913301
 31
0.0
  0
LINE
  5
2CD
  8
2
  6
CONTINUOUS
 10
1012.486855709559
 20
451.54326697774258
 30
0.0
 11
1012.508275199972
 21
451.4734234913301
 31
0.0
  0
LINE
  5
2CE
  8
2
  6
CONTINUOUS
 10
1003.75748767343
 20
451.4734234913301
 30
0.0
 11
1004.371091899864
 21
451.2671451071555
 31
0.0
  0
LINE
  5
2CF
  8
2
  6
CONTINUOUS
 10
1012.508275199972
 20
451.4734234913301
 30
0.0
 11
1012.5715363299551
 21
451.2671451071555
 31
0.0
  0
LINE
  5
2D0
  8
2
  6
CONTINUOUS
 10
1004.371091899864
 20
451.2671451071555
 30
0.0
 11
1007.041243244923
 21
450.03508235641038
 31
0.0
  0
LINE
  5
2D1
  8
2
  6
CONTINUOUS
 10
1012.5715363299551
 20
451.2671451071555
 30
0.0
 11
1012.949383393925
 21
450.03508235641038
 31
0.0
  0
LINE
  5
2D2
  8
2
  6
CONTINUOUS
 10
1007.041243244923
 20
450.03508235641038
 30
0.0
 11
1008.330951195663
 21
448.95319796700443
 31
0.0
  0
LINE
  5
2D3
  8
2
  6
CONTINUOUS
 10
1012.949383393925
 20
450.03508235641038
 30
0.0
 11
1013.281173994563
 21
448.95319796700443
 31
0.0
  0
LINE
  5
2D4
  8
2
  6
CONTINUOUS
 10
1008.330951195663
 20
448.95319796700443
 30
0.0
 11
1008.822827846926
 21
447.3432669777427
 31
0.0
  0
LINE
  5
2D5
  8
2
  6
CONTINUOUS
 10
1013.281173994563
 20
448.95319796700443
 30
0.0
 11
1013.7749050948011
 21
447.3432669777427
 31
0.0
  0
LINE
  5
2D6
  8
2
  6
CONTINUOUS
 10
1008.822827846926
 20
447.3432669777427
 30
0.0
 11
1008.828355165443
 21
447.18700312541858
 31
0.0
  0
LINE
  5
2D7
  8
2
  6
CONTINUOUS
 10
1013.7749050948011
 20
447.3432669777427
 30
0.0
 11
1013.822827846925
 21
447.18700312541858
 31
0.0
  0
LINE
  5
2D8
  8
2
  6
CONTINUOUS
 10
1008.828355165443
 20
447.18700312541858
 30
0.0
 11
1010.79734713798
 21
391.52126396961648
 31
0.0
  0
LINE
  5
2D9
  8
2
  6
CONTINUOUS
 10
1013.822827846925
 20
447.18700312541858
 30
0.0
 11
1016.683888874275
 21
391.52126396961648
 31
0.0
  0
LINE
  5
2DA
  8
2
  6
CONTINUOUS
 10
1010.79734713798
 20
391.52126396961648
 30
0.0
 11
1010.81284039043
 21
391.0832513410316
 31
0.0
  0
LINE
  5
2DB
  8
2
  6
CONTINUOUS
 10
1016.683888874275
 20
391.52126396961648
 30
0.0
 11
1016.751416002028
 21
391.0832513410316
 31
0.0
  0
LINE
  5
2DC
  8
2
  6
CONTINUOUS
 10
1010.81284039043
 20
391.0832513410316
 30
0.0
 11
1016.236477812996
 21
358.965317139908
 31
0.0
  0
LINE
  5
2DD
  8
2
  6
CONTINUOUS
 10
1016.751416002028
 20
391.0832513410316
 30
0.0
 11
1021.702944118809
 21
358.965317139908
 31
0.0
  0
LINE
  5
2DE
  8
2
  6
CONTINUOUS
 10
1016.236477812996
 20
358.965317139908
 30
0.0
 11
1016.51650009984
 21
357.30706886794542
 31
0.0
  0
LINE
  5
2DF
  8
2
  6
CONTINUOUS
 10
1021.702944118809
 20
358.965317139908
 30
0.0
 11
1022.446678899867
 21
357.30706886794542
 31
0.0
  0
LINE
  5
2E0
  8
2
  6
CONTINUOUS
 10
1016.51650009984
 20
357.30706886794542
 30
0.0
 11
1029.5923736467969
 21
328.90933335947631
 31
0.0
  0
LINE
  5
2E1
  8
2
  6
CONTINUOUS
 10
1022.446678899867
 20
357.30706886794542
 30
0.0
 11
1035.1832419091729
 21
328.90933335947631
 31
0.0
  0
LINE
  5
2E2
  8
2
  6
CONTINUOUS
 10
1029.5923736467969
 20
328.90933335947631
 30
0.0
 11
1030.8432740789151
 21
326.19267053070519
 31
0.0
  0
LINE
  5
2E3
  8
2
  6
CONTINUOUS
 10
1035.1832419091729
 20
328.90933335947631
 30
0.0
 11
1037.426586379021
 21
326.19267053070519
 31
0.0
  0
LINE
  5
2E4
  8
2
  6
CONTINUOUS
 10
1030.8432740789151
 20
326.19267053070519
 30
0.0
 11
1049.7844535507461
 21
303.50949453471873
 31
0.0
  0
LINE
  5
2E5
  8
2
  6
CONTINUOUS
 10
1037.426586379021
 20
326.19267053070519
 30
0.0
 11
1056.157721097054
 21
303.50949453471873
 31
0.0
  0
LINE
  5
2E6
  8
2
  6
CONTINUOUS
 10
1049.7844535507461
 20
303.50949453471873
 30
0.0
 11
1052.798739460351
 21
299.89970994387608
 31
0.0
  0
LINE
  5
2E7
  8
2
  6
CONTINUOUS
 10
1056.157721097054
 20
303.50949453471873
 30
0.0
 11
1061.3018135366881
 21
299.89970994387608
 31
0.0
  0
LINE
  5
2E8
  8
2
  6
CONTINUOUS
 10
1052.798739460351
 20
299.89970994387608
 30
0.0
 11
1074.667810635817
 21
284.58795605736839
 31
0.0
  0
LINE
  5
2E9
  8
2
  6
CONTINUOUS
 10
1061.3018135366881
 20
299.89970994387608
 30
0.0
 11
1083.1216965305209
 21
284.58795605736839
 31
0.0
  0
LINE
  5
2EA
  8
2
  6
CONTINUOUS
 10
1074.667810635817
 20
284.58795605736839
 30
0.0
 11
1080.8589651156531
 21
280.25318422787512
 31
0.0
  0
LINE
  5
2EB
  8
2
  6
CONTINUOUS
 10
1083.1216965305209
 20
284.58795605736839
 30
0.0
 11
1095.2507629018539
 21
280.25318422787512
 31
0.0
  0
LINE
  5
2EC
  8
2
  6
CONTINUOUS
 10
1080.8589651156531
 20
280.25318422787512
 30
0.0
 11
1099.5503590486919
 21
273.50212746038608
 31
0.0
  0
LINE
  5
2ED
  8
2
  6
CONTINUOUS
 10
1095.2507629018539
 20
280.25318422787512
 30
0.0
 11
1114.1408034461749
 21
273.50212746038608
 31
0.0
  0
LINE
  5
2EE
  8
2
  6
CONTINUOUS
 10
1099.5503590486919
 20
273.50212746038608
 30
0.0
 11
1112.779381883287
 21
268.72399884918082
 31
0.0
  0
LINE
  5
2EF
  8
2
  6
CONTINUOUS
 10
1114.1408034461749
 20
273.50212746038608
 30
0.0
 11
1124.2788636557791
 21
268.72399884918082
 31
0.0
  0
LINE
  5
2F0
  8
2
  6
CONTINUOUS
 10
1112.779381883287
 20
268.72399884918082
 30
0.0
 11
1113.0762878727701
 21
268.61676076962459
 31
0.0
  0
LINE
  5
2F1
  8
2
  6
CONTINUOUS
 10
1124.2788636557791
 20
268.72399884918082
 30
0.0
 11
1124.3652676504939
 21
268.61676076962459
 31
0.0
  0
LINE
  5
2F2
  8
2
  6
CONTINUOUS
 10
1113.0762878727701
 20
268.61676076962459
 30
0.0
 11
1122.9047838458689
 21
263.27635247542042
 31
0.0
  0
LINE
  5
2F3
  8
2
  6
CONTINUOUS
 10
1124.3652676504939
 20
268.61676076962459
 30
0.0
 11
1128.6681478581399
 21
263.27635247542042
 31
0.0
  0
LINE
  5
2F4
  8
2
  6
CONTINUOUS
 10
1122.9047838458689
 20
263.27635247542042
 30
0.0
 11
1124.723044704283
 21
259.99672616393138
 31
0.0
  0
LINE
  5
2F5
  8
2
  6
CONTINUOUS
 10
1128.6681478581399
 20
263.27635247542042
 30
0.0
 11
1131.3106123227949
 21
259.99672616393138
 31
0.0
  0
LINE
  5
2F6
  8
2
  6
CONTINUOUS
 10
1124.723044704283
 20
259.99672616393138
 30
0.0
 11
1128.3284688225631
 21
253.49356477887801
 31
0.0
  0
LINE
  5
2F7
  8
2
  6
CONTINUOUS
 10
1131.3106123227949
 20
259.99672616393138
 30
0.0
 11
1132.8063726918499
 21
253.49356477887801
 31
0.0
  0
LINE
  5
2F8
  8
2
  6
CONTINUOUS
 10
1128.3284688225631
 20
253.49356477887801
 30
0.0
 11
1127.5649055220231
 21
249.07429278125099
 31
0.0
  0
LINE
  5
2F9
  8
2
  6
CONTINUOUS
 10
1132.8063726918499
 20
253.49356477887801
 30
0.0
 11
1133.8228278469251
 21
249.07429278125099
 31
0.0
  0
LINE
  5
2FA
  8
2
  6
CONTINUOUS
 10
1127.5649055220231
 20
249.07429278125099
 30
0.0
 11
1127.0216136980951
 21
245.9298850519514
 31
0.0
  0
LINE
  5
2FB
  8
2
  6
CONTINUOUS
 10
1133.8228278469251
 20
249.07429278125099
 30
0.0
 11
1133.8228278469251
 21
245.9298850519514
 31
0.0
  0
LINE
  5
2FC
  8
2
  6
CONTINUOUS
 10
1127.0216136980951
 20
245.9298850519514
 30
0.0
 11
1120.7228278469249
 21
241.54326697774269
 31
0.0
  0
LINE
  5
2FD
  8
2
  6
CONTINUOUS
 10
1133.8228278469251
 20
245.9298850519514
 30
0.0
 11
1133.8228278469251
 21
241.54326697774269
 31
0.0
  0
LINE
  5
2FE
  8
2
  6
CONTINUOUS
 10
1120.7228278469249
 20
241.54326697774269
 30
0.0
 11
1108.375964310346
 21
238.78727065717169
 31
0.0
  0
LINE
  5
2FF
  8
2
  6
CONTINUOUS
 10
1133.8228278469251
 20
241.54326697774269
 30
0.0
 11
1133.8228278469251
 21
238.78727065717169
 31
0.0
  0
LINE
  5
300
  8
2
  6
CONTINUOUS
 10
1108.375964310346
 20
238.78727065717169
 30
0.0
 11
1099.0588347388159
 21
233.03491281891749
 31
0.0
  0
LINE
  5
301
  8
2
  6
CONTINUOUS
 10
1133.8228278469251
 20
238.78727065717169
 30
0.0
 11
1133.8228278469251
 21
233.03491281891749
 31
0.0
  0
LINE
  5
302
  8
2
  6
CONTINUOUS
 10
1099.0588347388159
 20
233.03491281891749
 30
0.0
 11
1094.167157627917
 21
223.2384839188172
 31
0.0
  0
LINE
  5
303
  8
2
  6
CONTINUOUS
 10
1133.8228278469251
 20
233.03491281891749
 30
0.0
 11
1133.8228278469251
 21
223.2384839188172
 31
0.0
  0
LINE
  5
304
  8
2
  6
CONTINUOUS
 10
1094.167157627917
 20
223.2384839188172
 30
0.0
 11
1094.506054950509
 21
219.54326697774269
 31
0.0
  0
LINE
  5
305
  8
2
  6
CONTINUOUS
 10
1133.8228278469251
 20
223.2384839188172
 30
0.0
 11
1133.8228278469251
 21
219.54326697774269
 31
0.0
  0
LINE
  5
306
  8
2
  6
CONTINUOUS
 10
1094.506054950509
 20
219.54326697774269
 30
0.0
 11
1095.1671951432129
 21
212.33442737457619
 31
0.0
  0
LINE
  5
307
  8
2
  6
CONTINUOUS
 10
1133.8228278469251
 20
219.54326697774269
 30
0.0
 11
1131.7710679574261
 21
212.33442737457619
 31
0.0
  0
LINE
  5
308
  8
2
  6
CONTINUOUS
 10
1095.1671951432129
 20
212.33442737457619
 30
0.0
 11
1097.6723723911541
 21
209.01170778200341
 31
0.0
  0
LINE
  5
309
  8
2
  6
CONTINUOUS
 10
1131.7710679574261
 20
212.33442737457619
 30
0.0
 11
1130.825364743125
 21
209.01170778200341
 31
0.0
  0
LINE
  5
30A
  8
2
  6
CONTINUOUS
 10
1097.6723723911541
 20
209.01170778200341
 30
0.0
 11
1101.7591897292509
 21
203.5911939035056
 31
0.0
  0
LINE
  5
30B
  8
2
  6
CONTINUOUS
 10
1130.825364743125
 20
209.01170778200341
 30
0.0
 11
1124.8762712256109
 21
203.5911939035056
 31
0.0
  0
LINE
  5
30C
  8
2
  6
CONTINUOUS
 10
1122.7314539375891
 20
201.63694459773561
 30
0.0
 11
1111.967215330822
 21
199.6295354793499
 31
0.0
  0
LINE
  5
30D
  8
2
  6
CONTINUOUS
 10
1111.967215330822
 20
199.6295354793499
 30
0.0
 11
1106.7947139489861
 21
201.63694459773561
 31
0.0
  0
LINE
  5
30E
  8
2
  6
CONTINUOUS
 10
1101.7591897292509
 20
203.5911939035056
 30
0.0
 11
1106.7947139489861
 21
201.63694459773561
 31
0.0
  0
LINE
  5
30F
  8
2
  6
CONTINUOUS
 10
1124.8762712256109
 20
203.5911939035056
 30
0.0
 11
1122.7314539375891
 21
201.63694459773561
 31
0.0
  0
ENDBLK
  5
311
  8
0
  0
BLOCK
  8
0
  2
*U5
 70
     1
 10
0.0
 20
0.0
 30
0.0
  3
*U5
  1

  0
SOLID
  5
32E
  8
2
  6
CONTINUOUS
 10
1123.8228278469251
 20
572.04326697774275
 30
0.0
 11
1123.8494278432261
 21
550.99940281686804
 31
0.0
 12
1133.8228278469251
 22
550.99940281686804
 32
0.0
 13
1133.8228278469251
 23
550.99940281686804
 33
0.0
  0
SOLID
  5
32F
  8
2
  6
CONTINUOUS
 10
-1123.8228278469251
 20
572.04326697774275
 30
0.0
 11
-1133.8228278469251
 21
572.04326697774275
 31
0.0
 12
-1133.8228278469251
 22
550.99940281686804
 32
0.0
 13
-1133.8228278469251
 23
550.99940281686804
 33
0.0
210
0.0
220
0.0
230
-1.0
  0
SOLID
  5
330
  8
2
  6
CONTINUOUS
 10
1123.8494278432261
 20
550.99940281686804
 30
0.0
 11
1122.6226778460109
 21
547.70374688880156
 31
0.0
 12
1133.8228278469251
 22
547.70374688880156
 32
0.0
 13
1133.8228278469251
 23
547.70374688880156
 33
0.0
210
0.0
220
0.0
230
1.0
  0
SOLID
  5
331
  8
2
  6
CONTINUOUS
 10
-1123.8494278432261
 20
550.99940281686804
 30
0.0
 11
-1133.8228278469251
 21
550.99940281686804
 31
0.0
 12
-1133.8228278469251
 22
547.70374688880156
 32
0.0
 13
-1133.8228278469251
 23
547.70374688880156
 33
0.0
210
0.0
220
0.0
230
-1.0
  0
SOLID
  5
332
  8
2
  6
CONTINUOUS
 10
1122.6226778460109
 20
547.70374688880156
 30
0.0
 11
1119.522827846926
 21
546.04326697774263
 31
0.0
 12
1133.8228278469251
 22
546.04326697774263
 32
0.0
 13
1133.8228278469251
 23
546.04326697774263
 33
0.0
210
0.0
220
0.0
230
1.0
  0
SOLID
  5
333
  8
2
  6
CONTINUOUS
 10
-1122.6226778460109
 20
547.70374688880156
 30
0.0
 11
-1133.8228278469251
 21
547.70374688880156
 31
0.0
 12
-1133.8228278469251
 22
546.04326697774263
 32
0.0
 13
-1133.8228278469251
 23
546.04326697774263
 33
0.0
210
0.0
220
0.0
230
-1.0
  0
SOLID
  5
334
  8
2
  6
CONTINUOUS
 10
1119.522827846926
 20
546.04326697774263
 30
0.0
 11
1083.157856388922
 21
541.47186697404277
 31
0.0
 12
1133.8228278469251
 22
541.47186697404277
 32
0.0
 13
1133.8228278469251
 23
541.47186697404277
 33
0.0
210
0.0
220
0.0
230
1.0
  0
SOLID
  5
335
  8
2
  6
CONTINUOUS
 10
-1119.522827846926
 20
546.04326697774263
 30
0.0
 11
-1133.8228278469251
 21
546.04326697774263
 31
0.0
 12
-1133.8228278469251
 22
541.47186697404277
 32
0.0
 13
-1133.8228278469251
 23
541.47186697404277
 33
0.0
210
0.0
220
0.0
230
-1.0
  0
SOLID
  5
336
  8
2
  6
CONTINUOUS
 10
1123.849427846925
 20
541.47186697404277
 30
0.0
 11
1123.9174107157889
 21
541.44326697774261
 31
0.0
 12
1133.8228278469251
 22
541.44326697774261
 32
0.0
 13
1133.8228278469251
 23
541.44326697774261
 33
0.0
210
0.0
220
0.0
230
1.0
  0
SOLID
  5
337
  8
2
  6
CONTINUOUS
 10
-1123.849427846925
 20
541.47186697404277
 30
0.0
 11
-1133.8228278469251
 21
541.47186697404277
 31
0.0
 12
-1133.8228278469251
 22
541.44326697774261
 32
0.0
 13
-1133.8228278469251
 23
541.44326697774261
 33
0.0
210
0.0
220
0.0
230
-1.0
  0
SOLID
  5
338
  8
2
  6
CONTINUOUS
 10
1083.157856388922
 20
541.47186697404277
 30
0.0
 11
1082.9303466439189
 21
541.44326697774261
 31
0.0
 12
1123.2228278469249
 22
541.44326697774261
 32
0.0
 13
1123.2228278469249
 23
541.44326697774261
 33
0.0
210
0.0
220
0.0
230
1.0
  0
SOLID
  5
339
  8
2
  6
CONTINUOUS
 10
-1083.157856388922
 20
541.47186697404277
 30
0.0
 11
-1123.849427846925
 21
541.47186697404277
 31
0.0
 12
-1123.2228278469249
 22
541.44326697774261
 32
0.0
 13
-1123.2228278469249
 23
541.44326697774261
 33
0.0
210
0.0
220
0.0
230
-1.0
  0
SOLID
  5
33A
  8
2
  6
CONTINUOUS
 10
1123.9174107157889
 20
541.44326697774261
 30
0.0
 11
1127.377585006034
 21
539.98759184144581
 31
0.0
 12
1133.8228278469251
 22
539.98759184144581
 32
0.0
 13
1133.8228278469251
 23
539.98759184144581
 33
0.0
210
0.0
220
0.0
230
1.0
  0
SOLID
  5
33B
  8
2
  6
CONTINUOUS
 10
-1123.9174107157889
 20
541.44326697774261
 30
0.0
 11
-1133.8228278469251
 21
541.44326697774261
 31
0.0
 12
-1133.8228278469251
 22
539.98759184144581
 32
0.0
 13
-1133.8228278469251
 23
539.98759184144581
 33
0.0
210
0.0
220
0.0
230
-1.0
  0
SOLID
  5
33C
  8
2
  6
CONTINUOUS
 10
1127.377585006034
 20
539.98759184144581
 30
0.0
 11
1128.3742890740659
 21
537.54326697774275
 31
0.0
 12
1133.8228278469251
 22
537.54326697774275
 32
0.0
 13
1133.8228278469251
 23
537.54326697774275
 33
0.0
210
0.0
220
0.0
230
1.0
  0
SOLID
  5
33D
  8
2
  6
CONTINUOUS
 10
-1127.377585006034
 20
539.98759184144581
 30
0.0
 11
-1133.8228278469251
 21
539.98759184144581
 31
0.0
 12
-1133.8228278469251
 22
537.54326697774275
 32
0.0
 13
-1133.8228278469251
 23
537.54326697774275
 33
0.0
210
0.0
220
0.0
230
-1.0
  0
SOLID
  5
33E
  8
2
  6
CONTINUOUS
 10
1128.3742890740659
 20
537.54326697774275
 30
0.0
 11
1128.8228278469251
 21
536.44326697774272
 31
0.0
 12
1133.3738183090741
 22
536.44326697774272
 32
0.0
 13
1133.3738183090741
 23
536.44326697774272
 33
0.0
210
0.0
220
0.0
230
1.0
  0
SOLID
  5
33F
  8
2
  6
CONTINUOUS
 10
-1128.3742890740659
 20
537.54326697774275
 30
0.0
 11
-1133.8228278469251
 21
537.54326697774275
 31
0.0
 12
-1133.3738183090741
 22
536.44326697774272
 32
0.0
 13
-1133.3738183090741
 23
536.44326697774272
 33
0.0
210
0.0
220
0.0
230
-1.0
  0
SOLID
  5
340
  8
2
  6
CONTINUOUS
 10
1128.8228278469251
 20
536.44326697774272
 30
0.0
 11
1128.8228278527031
 21
533.98258165396555
 31
0.0
 12
1132.369389963595
 22
533.98258165396555
 32
0.0
 13
1132.369389963595
 23
533.98258165396555
 33
0.0
210
0.0
220
0.0
230
1.0
  0
SOLID
  5
341
  8
2
  6
CONTINUOUS
 10
-1128.8228278469251
 20
536.44326697774272
 30
0.0
 11
-1133.3738183090741
 21
536.44326697774272
 31
0.0
 12
-1132.369389963595
 22
533.98258165396555
 32
0.0
 13
-1132.369389963595
 23
533.98258165396555
 33
0.0
210
0.0
220
0.0
230
-1.0
  0
SOLID
  5
342
  8
2
  6
CONTINUOUS
 10
-1128.822827855877
 20
532.63067765567655
 30
0.0
 11
-1129.146269308168
 21
532.63067765567655
 31
0.0
 12
-1128.8228278561951
 22
532.49501354660947
 32
0.0
 13
-1128.8228278561951
 23
532.49501354660947
 33
0.0
210
0.0
220
0.0
230
-1.0
  0
SOLID
  5
343
  8
2
  6
CONTINUOUS
 10
1128.8228278527031
 20
533.98258165396555
 30
0.0
 11
1128.822827855877
 21
532.63067765567655
 31
0.0
 12
1129.146269308168
 22
532.63067765567655
 32
0.0
 13
1129.146269308168
 23
532.63067765567655
 33
0.0
210
0.0
220
0.0
230
1.0
  0
SOLID
  5
344
  8
2
  6
CONTINUOUS
 10
-1128.8228278527031
 20
533.98258165396555
 30
0.0
 11
-1132.369389963595
 21
533.98258165396555
 31
0.0
 12
-1129.146269308168
 22
532.63067765567655
 32
0.0
 13
-1129.146269308168
 23
532.63067765567655
 33
0.0
210
0.0
220
0.0
230
-1.0
  0
SOLID
  5
345
  8
2
  6
CONTINUOUS
 10
1082.9303466439189
 20
541.44326697774261
 30
0.0
 11
1012.827192487933
 21
532.63067765567655
 31
0.0
 12
1053.1052693278771
 22
532.63067765567655
 32
0.0
 13
1053.1052693278771
 23
532.63067765567655
 33
0.0
210
0.0
220
0.0
230
1.0
  0
SOLID
  5
346
  8
2
  6
CONTINUOUS
 10
-1082.9303466439189
 20
541.44326697774261
 30
0.0
 11
-1123.2228278469249
 21
541.44326697774261
 31
0.0
 12
-1053.1052693278771
 22
532.63067765567655
 32
0.0
 13
-1053.1052693278771
 23
532.63067765567655
 33
0.0
210
0.0
220
0.0
230
-1.0
  0
SOLID
  5
347
  8
2
  6
CONTINUOUS
 10
1012.827192487933
 20
532.63067765567655
 30
0.0
 11
1003.405967314942
 21
527.64326697774266
 31
0.0
 12
1013.422827846925
 22
527.64326697774266
 32
0.0
 13
1013.422827846925
 23
527.64326697774266
 33
0.0
210
0.0
220
0.0
230
1.0
  0
SOLID
  5
348
  8
2
  6
CONTINUOUS
 10
-1012.827192487933
 20
532.63067765567655
 30
0.0
 11
-1053.1052693278771
 21
532.63067765567655
 31
0.0
 12
-1013.422827846925
 22
527.64326697774266
 32
0.0
 13
-1013.422827846925
 23
527.64326697774266
 33
0.0
210
0.0
220
0.0
230
-1.0
  0
SOLID
  5
349
  8
2
  6
CONTINUOUS
 10
1003.405967314942
 20
527.64326697774266
 30
0.0
 11
1002.821947732891
 21
527.33409853667922
 31
0.0
 12
1012.840952547944
 22
527.33409853667922
 32
0.0
 13
1012.840952547944
 23
527.33409853667922
 33
0.0
210
0.0
220
0.0
230
1.0
  0
SOLID
  5
34A
  8
2
  6
CONTINUOUS
 10
-1003.405967314942
 20
527.64326697774266
 30
0.0
 11
-1013.422827846925
 21
527.64326697774266
 31
0.0
 12
-1012.840952547944
 22
527.33409853667922
 32
0.0
 13
-1012.840952547944
 23
527.33409853667922
 33
0.0
210
0.0
220
0.0
230
-1.0
  0
SOLID
  5
34B
  8
2
  6
CONTINUOUS
 10
1002.821947732891
 20
527.33409853667922
 30
0.0
 11
1001.561416144324
 21
523.99584459333335
 31
0.0
 12
1006.558139513474
 22
523.99584459333335
 32
0.0
 13
1006.558139513474
 23
523.99584459333335
 33
0.0
210
0.0
220
0.0
230
1.0
  0
SOLID
  5
34C
  8
2
  6
CONTINUOUS
 10
-1002.821947732891
 20
527.33409853667922
 30
0.0
 11
-1012.840952547944
 21
527.33409853667922
 31
0.0
 12
-1006.558139513474
 22
523.99584459333335
 32
0.0
 13
-1006.558139513474
 23
523.99584459333335
 33
0.0
210
0.0
220
0.0
230
-1.0
  0
SOLID
  5
34D
  8
2
  6
CONTINUOUS
 10
1001.561416144324
 20
523.99584459333335
 30
0.0
 11
998.82282784692552
 21
516.74326697774268
 31
0.0
 12
1003.83177556097
 22
516.74326697774268
 32
0.0
 13
1003.83177556097
 23
516.74326697774268
 33
0.0
210
0.0
220
0.0
230
1.0
  0
SOLID
  5
34E
  8
2
  6
CONTINUOUS
 10
-1001.561416144324
 20
523.99584459333335
 30
0.0
 11
-1006.558139513474
 21
523.99584459333335
 31
0.0
 12
-1003.83177556097
 22
516.74326697774268
 32
0.0
 13
-1003.83177556097
 23
516.74326697774268
 33
0.0
210
0.0
220
0.0
230
-1.0
  0
SOLID
  5
34F
  8
2
  6
CONTINUOUS
 10
998.82282784692552
 20
516.74326697774268
 30
0.0
 11
998.82282784692552
 21
516.7194645831529
 31
0.0
 12
1003.822827846925
 22
516.7194645831529
 32
0.0
 13
1003.822827846925
 23
516.7194645831529
 33
0.0
210
0.0
220
0.0
230
1.0
  0
SOLID
  5
350
  8
2
  6
CONTINUOUS
 10
-998.82282784692552
 20
516.74326697774268
 30
0.0
 11
-1003.83177556097
 21
516.74326697774268
 31
0.0
 12
-1003.822827846925
 22
516.7194645831529
 32
0.0
 13
-1003.822827846925
 23
516.7194645831529
 33
0.0
210
0.0
220
0.0
230
-1.0
  0
SOLID
  5
351
  8
2
  6
CONTINUOUS
 10
998.82282784692552
 20
516.7194645831529
 30
0.0
 11
998.82282784692552
 21
510.54326697774269
 31
0.0
 12
1003.822827846925
 22
510.54326697774269
 32
0.0
 13
1003.822827846925
 23
510.54326697774269
 33
0.0
210
0.0
220
0.0
230
1.0
  0
SOLID
  5
352
  8
2
  6
CONTINUOUS
 10
-998.82282784692552
 20
516.7194645831529
 30
0.0
 11
-1003.822827846925
 21
516.7194645831529
 31
0.0
 12
-1003.822827846925
 22
510.54326697774269
 32
0.0
 13
-1003.822827846925
 23
510.54326697774269
 33
0.0
210
0.0
220
0.0
230
-1.0
  0
SOLID
  5
353
  8
2
  6
CONTINUOUS
 10
998.82282784692552
 20
510.54326697774269
 30
0.0
 11
997.94414819048529
 21
508.42194663418309
 31
0.0
 12
1002.944148190485
 22
508.42194663418309
 32
0.0
 13
1002.944148190485
 23
508.42194663418309
 33
0.0
  0
SOLID
  5
354
  8
2
  6
CONTINUOUS
 10
-998.82282784692552
 20
510.54326697774269
 30
0.0
 11
-1003.822827846925
 21
510.54326697774269
 31
0.0
 12
-1002.944148190485
 22
508.42194663418309
 32
0.0
 13
-1002.944148190485
 23
508.42194663418309
 33
0.0
210
0.0
220
0.0
230
-1.0
  0
SOLID
  5
355
  8
2
  6
CONTINUOUS
 10
997.94414819048529
 20
508.42194663418309
 30
0.0
 11
995.82282784692563
 21
507.54326697774269
 31
0.0
 12
1002.580187159806
 22
507.54326697774269
 32
0.0
 13
1002.580187159806
 23
507.54326697774269
 33
0.0
210
0.0
220
0.0
230
1.0
  0
SOLID
  5
356
  8
2
  6
CONTINUOUS
 10
-997.94414819048529
 20
508.42194663418309
 30
0.0
 11
-1002.944148190485
 21
508.42194663418309
 31
0.0
 12
-1002.580187159806
 22
507.54326697774269
 32
0.0
 13
-1002.580187159806
 23
507.54326697774269
 33
0.0
210
0.0
220
0.0
230
-1.0
  0
SOLID
  5
357
  8
2
  6
CONTINUOUS
 10
967.82282784692575
 20
507.54326697774269
 30
0.0
 11
967.82282784692575
 21
504.88641272825038
 31
0.0
 12
1001.4796820964179
 22
504.88641272825038
 32
0.0
 13
1001.4796820964179
 23
504.88641272825038
 33
0.0
210
0.0
220
0.0
230
1.0
  0
SOLID
  5
358
  8
2
  6
CONTINUOUS
 10
-967.82282784692575
 20
507.54326697774269
 30
0.0
 11
-1002.580187159806
 21
507.54326697774269
 31
0.0
 12
-1001.4796820964179
 22
504.88641272825038
 32
0.0
 13
-1001.4796820964179
 23
504.88641272825038
 33
0.0
210
0.0
220
0.0
230
-1.0
  0
SOLID
  5
359
  8
2
  6
CONTINUOUS
 10
967.82282784692575
 20
504.88641272825038
 30
0.0
 11
967.82282784692575
 21
502.54326697774269
 31
0.0
 12
995.82282784692541
 22
502.54326697774269
 32
0.0
 13
995.82282784692541
 23
502.54326697774269
 33
0.0
210
0.0
220
0.0
230
1.0
  0
SOLID
  5
35A
  8
2
  6
CONTINUOUS
 10
-967.82282784692575
 20
504.88641272825038
 30
0.0
 11
-1001.4796820964179
 21
504.88641272825038
 31
0.0
 12
-995.82282784692541
 22
502.54326697774269
 32
0.0
 13
-995.82282784692541
 23
502.54326697774269
 33
0.0
210
0.0
220
0.0
230
-1.0
  0
LINE
  5
35B
  8
2
  6
CONTINUOUS
 10
1123.8228278469251
 20
572.04326697774275
 30
0.0
 11
1123.8494278432261
 21
550.99940281686804
 31
0.0
  0
LINE
  5
35C
  8
2
  6
CONTINUOUS
 10
1133.8228278469251
 20
572.04326697774275
 30
0.0
 11
1133.8228278469251
 21
550.99940281686804
 31
0.0
  0
LINE
  5
35D
  8
2
  6
CONTINUOUS
 10
1123.8494278432261
 20
550.99940281686804
 30
0.0
 11
1122.6226778460109
 21
547.70374688880156
 31
0.0
  0
LINE
  5
35E
  8
2
  6
CONTINUOUS
 10
1133.8228278469251
 20
550.99940281686804
 30
0.0
 11
1133.8228278469251
 21
547.70374688880156
 31
0.0
  0
LINE
  5
35F
  8
2
  6
CONTINUOUS
 10
1122.6226778460109
 20
547.70374688880156
 30
0.0
 11
1119.522827846926
 21
546.04326697774263
 31
0.0
  0
LINE
  5
360
  8
2
  6
CONTINUOUS
 10
1133.8228278469251
 20
547.70374688880156
 30
0.0
 11
1133.8228278469251
 21
546.04326697774263
 31
0.0
  0
LINE
  5
361
  8
2
  6
CONTINUOUS
 10
1119.522827846926
 20
546.04326697774263
 30
0.0
 11
1083.157856388922
 21
541.47186697404277
 31
0.0
  0
LINE
  5
362
  8
2
  6
CONTINUOUS
 10
1133.8228278469251
 20
546.04326697774263
 30
0.0
 11
1133.8228278469251
 21
541.47186697404277
 31
0.0
  0
LINE
  5
363
  8
2
  6
CONTINUOUS
 10
1133.8228278469251
 20
541.47186697404277
 30
0.0
 11
1133.8228278469251
 21
541.44326697774261
 31
0.0
  0
LINE
  5
364
  8
2
  6
CONTINUOUS
 10
1083.157856388922
 20
541.47186697404277
 30
0.0
 11
1082.9303466439189
 21
541.44326697774261
 31
0.0
  0
LINE
  5
365
  8
2
  6
CONTINUOUS
 10
1123.9174107157889
 20
541.44326697774261
 30
0.0
 11
1127.377585006034
 21
539.98759184144581
 31
0.0
  0
LINE
  5
366
  8
2
  6
CONTINUOUS
 10
1133.8228278469251
 20
541.44326697774261
 30
0.0
 11
1133.8228278469251
 21
539.98759184144581
 31
0.0
  0
LINE
  5
367
  8
2
  6
CONTINUOUS
 10
1127.377585006034
 20
539.98759184144581
 30
0.0
 11
1128.3742890740659
 21
537.54326697774275
 31
0.0
  0
LINE
  5
368
  8
2
  6
CONTINUOUS
 10
1133.8228278469251
 20
539.98759184144581
 30
0.0
 11
1133.8228278469251
 21
537.54326697774275
 31
0.0
  0
LINE
  5
369
  8
2
  6
CONTINUOUS
 10
1128.3742890740659
 20
537.54326697774275
 30
0.0
 11
1128.8228278469251
 21
536.44326697774272
 31
0.0
  0
LINE
  5
36A
  8
2
  6
CONTINUOUS
 10
1133.8228278469251
 20
537.54326697774275
 30
0.0
 11
1133.3738183090741
 21
536.44326697774272
 31
0.0
  0
LINE
  5
36B
  8
2
  6
CONTINUOUS
 10
1128.8228278469251
 20
536.44326697774272
 30
0.0
 11
1128.8228278527031
 21
533.98258165396555
 31
0.0
  0
LINE
  5
36C
  8
2
  6
CONTINUOUS
 10
1133.3738183090741
 20
536.44326697774272
 30
0.0
 11
1132.369389963595
 21
533.98258165396555
 31
0.0
  0
LINE
  5
36D
  8
2
  6
CONTINUOUS
 10
1129.146269308168
 20
532.63067765567655
 30
0.0
 11
1128.8228278561951
 21
532.49501354660947
 31
0.0
  0
LINE
  5
36E
  8
2
  6
CONTINUOUS
 10
1128.8228278561951
 20
532.49501354660947
 30
0.0
 11
1128.822827855877
 21
532.63067765567655
 31
0.0
  0
LINE
  5
36F
  8
2
  6
CONTINUOUS
 10
1128.8228278527031
 20
533.98258165396555
 30
0.0
 11
1128.822827855877
 21
532.63067765567655
 31
0.0
  0
LINE
  5
370
  8
2
  6
CONTINUOUS
 10
1132.369389963595
 20
533.98258165396555
 30
0.0
 11
1129.146269308168
 21
532.63067765567655
 31
0.0
  0
LINE
  5
371
  8
2
  6
CONTINUOUS
 10
1082.9303466439189
 20
541.44326697774261
 30
0.0
 11
1012.827192487933
 21
532.63067765567655
 31
0.0
  0
LINE
  5
372
  8
2
  6
CONTINUOUS
 10
1123.2228278469249
 20
541.44326697774261
 30
0.0
 11
1053.1052693278771
 21
532.63067765567655
 31
0.0
  0
LINE
  5
373
  8
2
  6
CONTINUOUS
 10
1012.827192487933
 20
532.63067765567655
 30
0.0
 11
1003.405967314942
 21
527.64326697774266
 31
0.0
  0
LINE
  5
374
  8
2
  6
CONTINUOUS
 10
1053.1052693278771
 20
532.63067765567655
 30
0.0
 11
1013.422827846925
 21
527.64326697774266
 31
0.0
  0
LINE
  5
375
  8
2
  6
CONTINUOUS
 10
1003.405967314942
 20
527.64326697774266
 30
0.0
 11
1002.821947732891
 21
527.33409853667922
 31
0.0
  0
LINE
  5
376
  8
2
  6
CONTINUOUS
 10
1013.422827846925
 20
527.64326697774266
 30
0.0
 11
1012.840952547944
 21
527.33409853667922
 31
0.0
  0
LINE
  5
377
  8
2
  6
CONTINUOUS
 10
1002.821947732891
 20
527.33409853667922
 30
0.0
 11
1001.561416144324
 21
523.99584459333335
 31
0.0
  0
LINE
  5
378
  8
2
  6
CONTINUOUS
 10
1012.840952547944
 20
527.33409853667922
 30
0.0
 11
1006.558139513474
 21
523.99584459333335
 31
0.0
  0
LINE
  5
379
  8
2
  6
CONTINUOUS
 10
1001.561416144324
 20
523.99584459333335
 30
0.0
 11
998.82282784692552
 21
516.74326697774268
 31
0.0
  0
LINE
  5
37A
  8
2
  6
CONTINUOUS
 10
1006.558139513474
 20
523.99584459333335
 30
0.0
 11
1003.83177556097
 21
516.74326697774268
 31
0.0
  0
LINE
  5
37B
  8
2
  6
CONTINUOUS
 10
998.82282784692552
 20
516.74326697774268
 30
0.0
 11
998.82282784692552
 21
516.7194645831529
 31
0.0
  0
LINE
  5
37C
  8
2
  6
CONTINUOUS
 10
1003.83177556097
 20
516.74326697774268
 30
0.0
 11
1003.822827846925
 21
516.7194645831529
 31
0.0
  0
LINE
  5
37D
  8
2
  6
CONTINUOUS
 10
998.82282784692552
 20
516.7194645831529
 30
0.0
 11
998.82282784692552
 21
510.54326697774269
 31
0.0
  0
LINE
  5
37E
  8
2
  6
CONTINUOUS
 10
1003.822827846925
 20
516.7194645831529
 30
0.0
 11
1003.822827846925
 21
510.54326697774269
 31
0.0
  0
LINE
  5
37F
  8
2
  6
CONTINUOUS
 10
998.82282784692552
 20
510.54326697774269
 30
0.0
 11
997.94414819048529
 21
508.42194663418309
 31
0.0
  0
LINE
  5
380
  8
2
  6
CONTINUOUS
 10
1003.822827846925
 20
510.54326697774269
 30
0.0
 11
1002.944148190485
 21
508.42194663418309
 31
0.0
  0
LINE
  5
381
  8
2
  6
CONTINUOUS
 10
997.94414819048529
 20
508.42194663418309
 30
0.0
 11
995.82282784692563
 21
507.54326697774269
 31
0.0
  0
LINE
  5
382
  8
2
  6
CONTINUOUS
 10
1002.944148190485
 20
508.42194663418309
 30
0.0
 11
1002.580187159806
 21
507.54326697774269
 31
0.0
  0
LINE
  5
383
  8
2
  6
CONTINUOUS
 10
967.82282784692575
 20
507.54326697774269
 30
0.0
 11
967.82282784692575
 21
504.88641272825038
 31
0.0
  0
LINE
  5
384
  8
2
  6
CONTINUOUS
 10
1002.580187159806
 20
507.54326697774269
 30
0.0
 11
1001.4796820964179
 21
504.88641272825038
 31
0.0
  0
LINE
  5
385
  8
2
  6
CONTINUOUS
 10
967.82282784692575
 20
504.88641272825038
 30
0.0
 11
967.82282784692575
 21
502.54326697774269
 31
0.0
  0
LINE
  5
386
  8
2
  6
CONTINUOUS
 10
1001.4796820964179
 20
504.88641272825038
 30
0.0
 11
995.82282784692541
 21
502.54326697774269
 31
0.0
  0
ENDBLK
  5
388
  8
0
  0
BLOCK
  8
0
  2
*U6
 70
     1
 10
0.0
 20
0.0
 30
0.0
  3
*U6
  1

  0
SOLID
  5
38A
  8
2
  6
CONTINUOUS
 10
1123.8228278469251
 20
633.54326697774275
 30
0.0
 11
1123.8228278469251
 21
612.54326697774275
 31
0.0
 12
1133.8228278469251
 22
612.54326697774275
 32
0.0
 13
1133.8228278469251
 23
612.54326697774275
 33
0.0
210
0.0
220
0.0
230
1.0
  0
SOLID
  5
38B
  8
2
  6
CONTINUOUS
 10
-1123.8228278469251
 20
633.54326697774275
 30
0.0
 11
-1128.8228278469251
 21
633.54326697774275
 31
0.0
 12
-1133.8228278469251
 22
612.54326697774275
 32
0.0
 13
-1133.8228278469251
 23
612.54326697774275
 33
0.0
210
0.0
220
0.0
230
-1.0
  0
SOLID
  5
38C
  8
2
  6
CONTINUOUS
 10
1123.8228278469251
 20
612.54326697774275
 30
0.0
 11
1123.8228278469251
 21
607.04326697774275
 31
0.0
 12
1133.8228278469251
 22
607.04326697774275
 32
0.0
 13
1133.8228278469251
 23
607.04326697774275
 33
0.0
210
0.0
220
0.0
230
1.0
  0
SOLID
  5
38D
  8
2
  6
CONTINUOUS
 10
-1123.8228278469251
 20
612.54326697774275
 30
0.0
 11
-1133.8228278469251
 21
612.54326697774275
 31
0.0
 12
-1133.8228278469251
 22
607.04326697774275
 32
0.0
 13
-1133.8228278469251
 23
607.04326697774275
 33
0.0
210
0.0
220
0.0
230
-1.0
  0
LINE
  5
38E
  8
2
  6
CONTINUOUS
 10
1123.8228278469251
 20
633.54326697774275
 30
0.0
 11
1123.8228278469251
 21
612.54326697774275
 31
0.0
  0
LINE
  5
38F
  8
2
  6
CONTINUOUS
 10
1128.8228278469251
 20
633.54326697774275
 30
0.0
 11
1133.8228278469251
 21
612.54326697774275
 31
0.0
  0
LINE
  5
390
  8
2
  6
CONTINUOUS
 10
1123.8228278469251
 20
612.54326697774275
 30
0.0
 11
1123.8228278469251
 21
607.04326697774275
 31
0.0
  0
LINE
  5
391
  8
2
  6
CONTINUOUS
 10
1133.8228278469251
 20
612.54326697774275
 30
0.0
 11
1133.8228278469251
 21
607.04326697774275
 31
0.0
  0
ENDBLK
  5
393
  8
0
  0
BLOCK
  8
0
  2
*U7
 70
     1
 10
0.0
 20
0.0
 30
0.0
  3
*U7
  1

  0
SOLID
  5
395
  8
2
  6
CONTINUOUS
 10
1113.8228278469251
 20
535.24326697774268
 30
0.0
 11
1073.330586467614
 21
530.14326697774266
 31
0.0
 12
1113.8228278469251
 22
530.14326697774266
 32
0.0
 13
1113.8228278469251
 23
530.14326697774266
 33
0.0
  0
SOLID
  5
396
  8
2
  6
CONTINUOUS
 10
-1021.898884399625
 20
523.66544131011324
 30
0.0
 11
-1021.972920436279
 21
523.66544131011324
 31
0.0
 12
-1021.722827846925
 22
523.64326697774266
 32
0.0
 13
-1021.722827846925
 23
523.64326697774266
 33
0.0
210
0.0
220
0.0
230
-1.0
  0
SOLID
  5
397
  8
2
  6
CONTINUOUS
 10
1073.330586467614
 20
530.14326697774266
 30
0.0
 11
1021.898884399625
 21
523.66544131011324
 31
0.0
 12
1062.00022250589
 22
523.66544131011324
 32
0.0
 13
1062.00022250589
 23
523.66544131011324
 33
0.0
210
0.0
220
0.0
230
1.0
  0
SOLID
  5
398
  8
2
  6
CONTINUOUS
 10
-1073.330586467614
 20
530.14326697774266
 30
0.0
 11
-1113.8228278469251
 21
530.14326697774266
 31
0.0
 12
-1062.00022250589
 22
523.66544131011324
 32
0.0
 13
-1062.00022250589
 23
523.66544131011324
 33
0.0
210
0.0
220
0.0
230
-1.0
  0
SOLID
  5
399
  8
2
  6
CONTINUOUS
 10
1021.972920436279
 20
523.66544131011324
 30
0.0
 11
1012.679956839298
 21
518.74326697774256
 31
0.0
 12
1022.622827846925
 22
518.74326697774256
 32
0.0
 13
1022.622827846925
 23
518.74326697774256
 33
0.0
  0
SOLID
  5
39A
  8
2
  6
CONTINUOUS
 10
-1021.972920436279
 20
523.66544131011324
 30
0.0
 11
-1062.00022250589
 21
523.66544131011324
 31
0.0
 12
-1022.622827846925
 22
518.74326697774256
 32
0.0
 13
-1022.622827846925
 23
518.74326697774256
 33
0.0
210
0.0
220
0.0
230
-1.0
  0
SOLID
  5
39B
  8
2
  6
CONTINUOUS
 10
1012.679956839298
 20
518.74326697774256
 30
0.0
 11
1012.57806414967
 21
518.68929780243002
 31
0.0
 12
1022.5176869604931
 22
518.68929780243002
 32
0.0
 13
1022.5176869604931
 23
518.68929780243002
 33
0.0
  0
SOLID
  5
39C
  8
2
  6
CONTINUOUS
 10
-1012.679956839298
 20
518.74326697774256
 30
0.0
 11
-1022.622827846925
 21
518.74326697774256
 31
0.0
 12
-1022.5176869604931
 22
518.68929780243002
 32
0.0
 13
-1022.5176869604931
 23
518.68929780243002
 33
0.0
210
0.0
220
0.0
230
-1.0
  0
SOLID
  5
39D
  8
2
  6
CONTINUOUS
 10
1012.57806414967
 20
518.68929780243002
 30
0.0
 11
1011.417889013326
 21
515.61648513823513
 31
0.0
 12
1016.531339281788
 22
515.61648513823513
 32
0.0
 13
1016.531339281788
 23
515.61648513823513
 33
0.0
210
0.0
220
0.0
230
1.0
  0
SOLID
  5
39E
  8
2
  6
CONTINUOUS
 10
-1012.57806414967
 20
518.68929780243002
 30
0.0
 11
-1022.5176869604931
 21
518.68929780243002
 31
0.0
 12
-1016.531339281788
 22
515.61648513823513
 32
0.0
 13
-1016.531339281788
 23
515.61648513823513
 33
0.0
210
0.0
220
0.0
230
-1.0
  0
SOLID
  5
39F
  8
2
  6
CONTINUOUS
 10
1011.417889013326
 20
515.61648513823513
 30
0.0
 11
1009.037013429792
 21
509.31055389064358
 31
0.0
 12
1013.86333839878
 22
509.31055389064358
 32
0.0
 13
1013.86333839878
 23
509.31055389064358
 33
0.0
  0
SOLID
  5
3A0
  8
2
  6
CONTINUOUS
 10
-1011.417889013326
 20
515.61648513823513
 30
0.0
 11
-1016.531339281788
 21
515.61648513823513
 31
0.0
 12
-1013.86333839878
 22
509.31055389064358
 32
0.0
 13
-1013.86333839878
 23
509.31055389064358
 33
0.0
210
0.0
220
0.0
230
-1.0
  0
SOLID
  5
3A1
  8
2
  6
CONTINUOUS
 10
1009.037013429792
 20
509.31055389064358
 30
0.0
 11
1008.822827846926
 21
508.74326697774268
 31
0.0
 12
1013.649325267805
 22
508.74326697774268
 32
0.0
 13
1013.649325267805
 23
508.74326697774268
 33
0.0
210
0.0
220
0.0
230
1.0
  0
SOLID
  5
3A2
  8
2
  6
CONTINUOUS
 10
-1009.037013429792
 20
509.31055389064358
 30
0.0
 11
-1013.86333839878
 21
509.31055389064358
 31
0.0
 12
-1013.649325267805
 22
508.74326697774268
 32
0.0
 13
-1013.649325267805
 23
508.74326697774268
 33
0.0
210
0.0
220
0.0
230
-1.0
  0
SOLID
  5
3A3
  8
2
  6
CONTINUOUS
 10
1008.822827846926
 20
508.74326697774268
 30
0.0
 11
1008.822827846926
 21
507.89236895341378
 31
0.0
 12
1013.328317773736
 22
507.89236895341378
 32
0.0
 13
1013.328317773736
 23
507.89236895341378
 33
0.0
210
0.0
220
0.0
230
1.0
  0
SOLID
  5
3A4
  8
2
  6
CONTINUOUS
 10
-1008.822827846926
 20
508.74326697774268
 30
0.0
 11
-1013.649325267805
 21
508.74326697774268
 31
0.0
 12
-1013.328317773736
 22
507.89236895341378
 32
0.0
 13
-1013.328317773736
 23
507.89236895341378
 33
0.0
210
0.0
220
0.0
230
-1.0
  0
SOLID
  5
3A5
  8
2
  6
CONTINUOUS
 10
-1008.822827846926
 20
507.04396434345222
 30
0.0
 11
-1012.072250417579
 21
507.04396434345222
 31
0.0
 12
-1008.822827846926
 22
506.14326697774283
 32
0.0
 13
-1008.822827846926
 23
506.14326697774283
 33
0.0
210
0.0
220
0.0
230
-1.0
  0
SOLID
  5
3A6
  8
2
  6
CONTINUOUS
 10
1008.822827846926
 20
507.89236895341378
 30
0.0
 11
1008.822827846926
 21
507.04396434345222
 31
0.0
 12
1012.072250417579
 22
507.04396434345222
 32
0.0
 13
1012.072250417579
 23
507.04396434345222
 33
0.0
210
0.0
220
0.0
230
1.0
  0
SOLID
  5
3A7
  8
2
  6
CONTINUOUS
 10
-1008.822827846926
 20
507.89236895341378
 30
0.0
 11
-1013.328317773736
 21
507.89236895341378
 31
0.0
 12
-1012.072250417579
 22
507.04396434345222
 32
0.0
 13
-1012.072250417579
 23
507.04396434345222
 33
0.0
210
0.0
220
0.0
230
-1.0
  0
LINE
  5
3A8
  8
2
  6
CONTINUOUS
 10
1113.8228278469251
 20
535.24326697774268
 30
0.0
 11
1073.330586467614
 21
530.14326697774266
 31
0.0
  0
LINE
  5
3A9
  8
2
  6
CONTINUOUS
 10
1113.8228278469251
 20
530.14326697774266
 30
0.0
 11
1113.8228278469251
 21
535.24326697774268
 31
0.0
  0
LINE
  5
3AA
  8
2
  6
CONTINUOUS
 10
1021.972920436279
 20
523.66544131011324
 30
0.0
 11
1021.722827846925
 21
523.64326697774266
 31
0.0
  0
LINE
  5
3AB
  8
2
  6
CONTINUOUS
 10
1021.722827846925
 20
523.64326697774266
 30
0.0
 11
1021.898884399625
 21
523.66544131011324
 31
0.0
  0
LINE
  5
3AC
  8
2
  6
CONTINUOUS
 10
1073.330586467614
 20
530.14326697774266
 30
0.0
 11
1021.898884399625
 21
523.66544131011324
 31
0.0
  0
LINE
  5
3AD
  8
2
  6
CONTINUOUS
 10
1113.8228278469251
 20
530.14326697774266
 30
0.0
 11
1062.00022250589
 21
523.66544131011324
 31
0.0
  0
LINE
  5
3AE
  8
2
  6
CONTINUOUS
 10
1021.972920436279
 20
523.66544131011324
 30
0.0
 11
1012.679956839298
 21
518.74326697774256
 31
0.0
  0
LINE
  5
3AF
  8
2
  6
CONTINUOUS
 10
1062.00022250589
 20
523.66544131011324
 30
0.0
 11
1022.622827846925
 21
518.74326697774256
 31
0.0
  0
LINE
  5
3B0
  8
2
  6
CONTINUOUS
 10
1012.679956839298
 20
518.74326697774256
 30
0.0
 11
1012.57806414967
 21
518.68929780243002
 31
0.0
  0
LINE
  5
3B1
  8
2
  6
CONTINUOUS
 10
1022.622827846925
 20
518.74326697774256
 30
0.0
 11
1022.5176869604931
 21
518.68929780243002
 31
0.0
  0
LINE
  5
3B2
  8
2
  6
CONTINUOUS
 10
1012.57806414967
 20
518.68929780243002
 30
0.0
 11
1011.417889013326
 21
515.61648513823513
 31
0.0
  0
LINE
  5
3B3
  8
2
  6
CONTINUOUS
 10
1022.5176869604931
 20
518.68929780243002
 30
0.0
 11
1016.531339281788
 21
515.61648513823513
 31
0.0
  0
LINE
  5
3B4
  8
2
  6
CONTINUOUS
 10
1011.417889013326
 20
515.61648513823513
 30
0.0
 11
1009.037013429792
 21
509.31055389064358
 31
0.0
  0
LINE
  5
3B5
  8
2
  6
CONTINUOUS
 10
1016.531339281788
 20
515.61648513823513
 30
0.0
 11
1013.86333839878
 21
509.31055389064358
 31
0.0
  0
LINE
  5
3B6
  8
2
  6
CONTINUOUS
 10
1009.037013429792
 20
509.31055389064358
 30
0.0
 11
1008.822827846926
 21
508.74326697774268
 31
0.0
  0
LINE
  5
3B7
  8
2
  6
CONTINUOUS
 10
1013.86333839878
 20
509.31055389064358
 30
0.0
 11
1013.649325267805
 21
508.74326697774268
 31
0.0
  0
LINE
  5
3B8
  8
2
  6
CONTINUOUS
 10
1008.822827846926
 20
508.74326697774268
 30
0.0
 11
1008.822827846926
 21
507.89236895341378
 31
0.0
  0
LINE
  5
3B9
  8
2
  6
CONTINUOUS
 10
1013.649325267805
 20
508.74326697774268
 30
0.0
 11
1013.328317773736
 21
507.89236895341378
 31
0.0
  0
LINE
  5
3BA
  8
2
  6
CONTINUOUS
 10
1012.072250417579
 20
507.04396434345222
 30
0.0
 11
1008.822827846926
 21
506.14326697774283
 31
0.0
  0
LINE
  5
3BB
  8
2
  6
CONTINUOUS
 10
1008.822827846926
 20
506.14326697774283
 30
0.0
 11
1008.822827846926
 21
507.04396434345222
 31
0.0
  0
LINE
  5
3BC
  8
2
  6
CONTINUOUS
 10
1008.822827846926
 20
507.89236895341378
 30
0.0
 11
1008.822827846926
 21
507.04396434345222
 31
0.0
  0
LINE
  5
3BD
  8
2
  6
CONTINUOUS
 10
1013.328317773736
 20
507.89236895341378
 30
0.0
 11
1012.072250417579
 21
507.04396434345222
 31
0.0
  0
ENDBLK
  5
3BF
  8
0
  0
ENDSEC
  0
SECTION
  2
ENTITIES
  0
LINE
  5
29
  8
2
  6
DASHDOT
 62
     7
 10
351.32282784692552
 20
519.94326697774272
 30
0.0
 11
351.32282784692552
 21
439.94326697774272
 31
0.0
  0
LINE
  5
2A
  8
2
  6
DASHDOT
 62
     7
 10
307.72282784692538
 20
479.54326697774258
 30
0.0
 11
395.1228278469257
 21
479.54326697774258
 31
0.0
  0
CIRCLE
  5
2B
  8
2
  6
CONTINUOUS
 62
     7
 10
351.3397278469256
 20
479.49536697774261
 30
0.0
 40
23.0
  0
CIRCLE
  5
2C
  8
2
  6
HIDDEN
 62
     7
 10
351.3397278469256
 20
479.49536697774261
 30
0.0
 40
28.5
  0
LINE
  5
2D
  8
2
  6
DASHDOT
 62
     7
 10
1016.922827846926
 20
479.54326697774258
 30
0.0
 11
961.7228278469255
 21
479.54326697774258
 31
0.0
  0
LINE
  5
2E
  8
2
  6
CONTINUOUS
 62
     7
 10
967.82282784692575
 20
502.54326697774269
 30
0.0
 11
967.82282784692575
 21
456.54326697774258
 31
0.0
  0
LINE
  5
2F
  8
2
  6
CONTINUOUS
 62
     7
 10
1013.822827846925
 20
509.3432669777427
 30
0.0
 11
1013.822827846925
 21
447.1432669777426
 31
0.0
  0
LINE
  5
30
  8
2
  6
CONTINUOUS
 62
     7
 10
1133.8228278469251
 20
234.24326697774271
 30
0.0
 11
1133.8228278469251
 21
537.54326697774275
 31
0.0
  0
LINE
  5
31
  8
2
  6
DASHDOT
 62
     7
 10
351.32282784692552
 20
628.14326697774266
 30
0.0
 11
351.32282784692552
 21
548.04326697774275
 31
0.0
  0
LINE
  5
32
  8
2
  6
DASHDOT
 62
     7
 10
313.12282784692547
 20
589.54326697774263
 30
0.0
 11
390.52282784692562
 21
589.54326697774263
 31
0.0
  0
LINE
  5
33
  8
2
  6
DASHDOT
 62
     7
 10
1113.8228278469251
 20
589.54326697774263
 30
0.0
 11
1142.422827846925
 21
589.54326697774263
 31
0.0
  0
ARC
  5
34
  8
2
  6
CONTINUOUS
 62
     7
 10
-351.3397278469256
 20
147.4936208804271
 30
0.0
 40
387.03994609731598
210
0.0
220
0.0
230
-1.0
 50
52.889454163826258
 51
127.31135416382629
  0
TEXT
  5
37
  8
5
  6
CONTINUOUS
 62
     7
 10
907.42282784692566
 20
713.24326697774256
 30
0.0
 40
20.0
  1
EBS 8 Vertikalschnitt
 41
0.9000000000000001
  7
MONOTXT
  0
ARC
  5
38
  8
2
  6
CONTINUOUS
 62
     7
 10
-560.14232436803275
 20
384.72343480053007
 30
0.0
 40
90.000000000000028
210
0.0
220
0.0
230
-1.0
 50
166.85047990953831
 51
187.26676324287169
  0
ARC
  5
39
  8
2
  6
CONTINUOUS
 62
     7
 10
-92.030425521347297
 20
444.41397162890399
 30
0.0
 40
561.90222601040944
210
0.0
220
0.0
230
-1.0
 50
187.2667636096453
 51
206.57305249853431
  0
ARC
  5
3A
  8
2
  6
CONTINUOUS
 62
     7
 10
-549.85772621962838
 20
215.42040769633209
 30
0.0
 40
50.0
210
0.0
220
0.0
230
-1.0
 50
206.5730529717826
 51
289.4794390828938
  0
ARC
  5
3B
  8
2
  6
CONTINUOUS
 62
     7
 10
-351.33972784692509
 20
-345.81713302225688
 30
0.0
 40
545.31249999999955
210
0.0
220
0.0
230
-1.0
 50
70.520561305115933
 51
109.47943908289371
  0
ARC
  5
3C
  8
2
  6
CONTINUOUS
 62
     7
 10
152.82172968219581
 20
215.42040787121721
 30
0.0
 40
50.000000000000007
 50
206.57305249853431
 51
289.4794386096454
  0
ARC
  5
3D
  8
2
  6
CONTINUOUS
 62
     7
 10
610.64903017250981
 20
444.41397162890479
 30
0.0
 40
561.9022260104158
 50
187.2667636096453
 51
206.57305249853431
  0
ARC
  5
3E
  8
2
  6
CONTINUOUS
 62
     7
 10
-142.53712957771521
 20
384.7234348005295
 30
0.0
 40
90.000000000000028
210
0.0
220
0.0
230
-1.0
 50
352.73323824287172
 51
13.11164379842727
  0
TEXT
  5
3F
  8
5
  6
CONTINUOUS
 62
     7
 10
197.32282784692549
 20
713.24326697774256
 30
0.0
 40
20.0
  1
EBS 8 Draufsicht
 41
0.9000000000000001
  7
MONOTXT
  0
LINE
  5
40
  8
2
  6
CONTINUOUS
 62
     7
 10
1003.822827846925
 20
510.54326697774269
 30
0.0
 11
1003.822827846925
 21
479.54326697774258
 31
0.0
  0
ARC
  5
41
  8
2
  6
CONTINUOUS
 62
     7
 10
998.82282784692552
 20
507.54326697774269
 30
0.0
 40
0.0
 50
0.0
 51
90.0
  0
LINE
  5
42
  8
2
  6
CONTINUOUS
 62
     7
 10
1008.822827846926
 20
506.14326697774283
 30
0.0
 11
1008.822827846926
 21
479.14326697774271
 31
0.0
  0
POINT
  5
44
  8
2
  6
CONTINUOUS
 62
     7
 10
1133.8228278469251
 20
537.54326697774275
 30
0.0
  0
POLYLINE
  5
45
  8
2
  6
CONTINUOUS
 62
     7
 66
     1
 10
0.0
 20
0.0
 30
0.0
  0
VERTEX
  5
1FC
  8
2
  6
CONTINUOUS
 62
     7
 10
1113.8228278469251
 20
530.14326697774266
 30
0.0
  0
VERTEX
  5
1FD
  8
2
  6
CONTINUOUS
 62
     7
 10
1113.8228278469251
 20
535.24326697774268
 30
0.0
  0
VERTEX
  5
1FE
  8
2
  6
CONTINUOUS
 62
     7
 10
1021.722827846925
 20
523.64326697774266
 30
0.0
  0
VERTEX
  5
1FF
  8
2
  6
CONTINUOUS
 62
     7
 10
1021.972920436279
 20
523.66544131011324
 30
0.0
 42
0.3779355379617603
  0
VERTEX
  5
200
  8
2
  6
CONTINUOUS
 62
     7
 10
1008.822827846926
 20
508.74326697774268
 30
0.0
  0
VERTEX
  5
201
  8
2
  6
CONTINUOUS
 62
     7
 10
1008.822827846926
 20
506.14326697774283
 30
0.0
  0
VERTEX
  5
202
  8
2
  6
CONTINUOUS
 62
     7
 10
1012.072250417579
 20
507.04396434345222
 30
0.0
 42
0.3181196754421428
  0
VERTEX
  5
203
  8
2
  6
CONTINUOUS
 62
     7
 10
1013.86333839878
 20
509.31055389064358
 30
0.0
 42
-0.3629377518980019
  0
VERTEX
  5
204
  8
2
  6
CONTINUOUS
 62
     7
 10
1022.622827846925
 20
518.74326697774256
 30
0.0
  0
VERTEX
  5
205
  8
2
  6
CONTINUOUS
 62
     7
 10
1113.8228278469251
 20
530.14326697774266
 30
0.0
  0
SEQEND
  5
206
  8
2
  6
CONTINUOUS
 62
     7
  0
LINE
  5
51
  8
2
  6
CONTINUOUS
 62
     7
 10
1113.8228278469251
 20
530.14326697774266
 30
0.0
 11
1128.8228278469251
 21
532.64326697774266
 31
0.0
  0
LINE
  5
52
  8
2
  6
CONTINUOUS
 62
     7
 10
1113.8228278469251
 20
535.24326697774268
 30
0.0
 11
1128.6228278469259
 21
537.64326697774266
 31
0.0
  0
POLYLINE
  5
53
  8
2
  6
CONTINUOUS
 62
     7
 10
130.46046683795845
 20
355.57316115079834
 30
0.0
 66
     1
 70
     8
  0
VERTEX
  8
2
  5
5A9
 10
130.460
 20
355.573
 30
0.000000
  70
    32
  0
VERTEX
  8
2
  5
5AA
 10
132.427
 20
353.341
 30
0.000000
  70
    32
  0
VERTEX
  8
2
  5
5AB
 10
134.443
 20
351.130
 30
0.000000
  70
    32
  0
VERTEX
  8
2
  5
5AC
 10
136.510
 20
348.939
 30
0.000000
  70
    32
  0
VERTEX
  8
2
  5
5AD
 10
138.627
 20
346.769
 30
0.000000
  70
    32
  0
VERTEX
  8
2
  5
5AE
 10
140.793
 20
344.621
 30
0.000000
  70
    32
  0
VERTEX
  8
2
  5
5AF
 10
143.008
 20
342.495
 30
0.000000
  70
    32
  0
VERTEX
  8
2
  5
5B0
 10
145.272
 20
340.392
 30
0.000000
  70
    32
  0
VERTEX
  8
2
  5
5B1
 10
147.583
 20
338.313
 30
0.000000
  70
    32
  0
VERTEX
  8
2
  5
5B2
 10
149.941
 20
336.257
 30
0.000000
  70
    32
  0
VERTEX
  8
2
  5
5B3
 10
152.346
 20
334.225
 30
0.000000
  70
    32
  0
VERTEX
  8
2
  5
5B4
 10
154.797
 20
332.217
 30
0.000000
  70
    32
  0
VERTEX
  8
2
  5
5B5
 10
157.294
 20
330.235
 30
0.000000
  70
    32
  0
VERTEX
  8
2
  5
5B6
 10
159.835
 20
328.279
 30
0.000000
  70
    32
  0
VERTEX
  8
2
  5
5B7
 10
162.421
 20
326.348
 30
0.000000
  70
    32
  0
VERTEX
  8
2
  5
5B8
 10
165.051
 20
324.444
 30
0.000000
  70
    32
  0
VERTEX
  8
2
  5
5B9
 10
167.724
 20
322.567
 30
0.000000
  70
    32
  0
VERTEX
  8
2
  5
5BA
 10
170.439
 20
320.717
 30
0.000000
  70
    32
  0
VERTEX
  8
2
  5
5BB
 10
173.197
 20
318.895
 30
0.000000
  70
    32
  0
VERTEX
  8
2
  5
5BC
 10
175.995
 20
317.101
 30
0.000000
  70
    32
  0
VERTEX
  8
2
  5
5BD
 10
178.835
 20
315.336
 30
0.000000
  70
    32
  0
VERTEX
  8
2
  5
5BE
 10
181.714
 20
313.600
 30
0.000000
  70
    32
  0
VERTEX
  8
2
  5
5BF
 10
184.633
 20
311.893
 30
0.000000
  70
    32
  0
VERTEX
  8
2
  5
5C0
 10
187.590
 20
310.216
 30
0.000000
  70
    32
  0
VERTEX
  8
2
  5
5C1
 10
190.585
 20
308.569
 30
0.000000
  70
    32
  0
VERTEX
  8
2
  5
5C2
 10
193.618
 20
306.953
 30
0.000000
  70
    32
  0
VERTEX
  8
2
  5
5C3
 10
196.687
 20
305.368
 30
0.000000
  70
    32
  0
VERTEX
  8
2
  5
5C4
 10
199.792
 20
303.814
 30
0.000000
  70
    32
  0
VERTEX
  8
2
  5
5C5
 10
202.932
 20
302.292
 30
0.000000
  70
    32
  0
VERTEX
  8
2
  5
5C6
 10
206.106
 20
300.802
 30
0.000000
  70
    32
  0
VERTEX
  8
2
  5
5C7
 10
209.314
 20
299.344
 30
0.000000
  70
    32
  0
VERTEX
  8
2
  5
5C8
 10
212.555
 20
297.919
 30
0.000000
  70
    32
  0
VERTEX
  8
2
  5
5C9
 10
215.829
 20
296.527
 30
0.000000
  70
    32
  0
VERTEX
  8
2
  5
5CA
 10
219.133
 20
295.169
 30
0.000000
  70
    32
  0
VERTEX
  8
2
  5
5CB
 10
222.468
 20
293.844
 30
0.000000
  70
    32
  0
VERTEX
  8
2
  5
5CC
 10
225.834
 20
292.553
 30
0.000000
  70
    32
  0
VERTEX
  8
2
  5
5CD
 10
229.228
 20
291.297
 30
0.000000
  70
    32
  0
VERTEX
  8
2
  5
5CE
 10
232.650
 20
290.075
 30
0.000000
  70
    32
  0
VERTEX
  8
2
  5
5CF
 10
236.100
 20
288.888
 30
0.000000
  70
    32
  0
VERTEX
  8
2
  5
5D0
 10
239.577
 20
287.736
 30
0.000000
  70
    32
  0
VERTEX
  8
2
  5
5D1
 10
243.080
 20
286.619
 30
0.000000
  70
    32
  0
VERTEX
  8
2
  5
5D2
 10
246.607
 20
285.538
 30
0.000000
  70
    32
  0
VERTEX
  8
2
  5
5D3
 10
250.159
 20
284.494
 30
0.000000
  70
    32
  0
VERTEX
  8
2
  5
5D4
 10
253.735
 20
283.485
 30
0.000000
  70
    32
  0
VERTEX
  8
2
  5
5D5
 10
257.333
 20
282.513
 30
0.000000
  70
    32
  0
VERTEX
  8
2
  5
5D6
 10
260.953
 20
281.577
 30
0.000000
  70
    32
  0
VERTEX
  8
2
  5
5D7
 10
264.593
 20
280.678
 30
0.000000
  70
    32
  0
VERTEX
  8
2
  5
5D8
 10
268.254
 20
279.816
 30
0.000000
  70
    32
  0
VERTEX
  8
2
  5
5D9
 10
271.934
 20
278.992
 30
0.000000
  70
    32
  0
VERTEX
  8
2
  5
5DA
 10
275.633
 20
278.205
 30
0.000000
  70
    32
  0
VERTEX
  8
2
  5
5DB
 10
279.349
 20
277.455
 30
0.000000
  70
    32
  0
VERTEX
  8
2
  5
5DC
 10
283.082
 20
276.744
 30
0.000000
  70
    32
  0
VERTEX
  8
2
  5
5DD
 10
286.830
 20
276.070
 30
0.000000
  70
    32
  0
VERTEX
  8
2
  5
5DE
 10
290.594
 20
275.435
 30
0.000000
  70
    32
  0
VERTEX
  8
2
  5
5DF
 10
294.371
 20
274.837
 30
0.000000
  70
    32
  0
VERTEX
  8
2
  5
5E0
 10
298.162
 20
274.278
 30
0.000000
  70
    32
  0
VERTEX
  8
2
  5
5E1
 10
301.965
 20
273.758
 30
0.000000
  70
    32
  0
VERTEX
  8
2
  5
5E2
 10
305.780
 20
273.277
 30
0.000000
  70
    32
  0
VERTEX
  8
2
  5
5E3
 10
309.605
 20
272.834
 30
0.000000
  70
    32
  0
VERTEX
  8
2
  5
5E4
 10
313.440
 20
272.430
 30
0.000000
  70
    32
  0
VERTEX
  8
2
  5
5E5
 10
317.284
 20
272.065
 30
0.000000
  70
    32
  0
VERTEX
  8
2
  5
5E6
 10
321.135
 20
271.739
 30
0.000000
  70
    32
  0
VERTEX
  8
2
  5
5E7
 10
324.994
 20
271.452
 30
0.000000
  70
    32
  0
VERTEX
  8
2
  5
5E8
 10
328.858
 20
271.204
 30
0.000000
  70
    32
  0
VERTEX
  8
2
  5
5E9
 10
332.728
 20
270.996
 30
0.000000
  70
    32
  0
VERTEX
  8
2
  5
5EA
 10
336.602
 20
270.827
 30
0.000000
  70
    32
  0
VERTEX
  8
2
  5
5EB
 10
340.480
 20
270.697
 30
0.000000
  70
    32
  0
VERTEX
  8
2
  5
5EC
 10
344.360
 20
270.607
 30
0.000000
  70
    32
  0
VERTEX
  8
2
  5
5ED
 10
348.241
 20
270.556
 30
0.000000
  70
    32
  0
VERTEX
  8
2
  5
5EE
 10
352.124
 20
270.544
 30
0.000000
  70
    32
  0
VERTEX
  8
2
  5
5EF
 10
356.006
 20
270.572
 30
0.000000
  70
    32
  0
VERTEX
  8
2
  5
5F0
 10
359.887
 20
270.639
 30
0.000000
  70
    32
  0
VERTEX
  8
2
  5
5F1
 10
363.766
 20
270.746
 30
0.000000
  70
    32
  0
VERTEX
  8
2
  5
5F2
 10
367.642
 20
270.892
 30
0.000000
  70
    32
  0
VERTEX
  8
2
  5
5F3
 10
371.515
 20
271.077
 30
0.000000
  70
    32
  0
VERTEX
  8
2
  5
5F4
 10
375.382
 20
271.302
 30
0.000000
  70
    32
  0
VERTEX
  8
2
  5
5F5
 10
379.245
 20
271.565
 30
0.000000
  70
    32
  0
VERTEX
  8
2
  5
5F6
 10
383.100
 20
271.868
 30
0.000000
  70
    32
  0
VERTEX
  8
2
  5
5F7
 10
386.949
 20
272.211
 30
0.000000
  70
    32
  0
VERTEX
  8
2
  5
5F8
 10
390.789
 20
272.592
 30
0.000000
  70
    32
  0
VERTEX
  8
2
  5
5F9
 10
394.620
 20
273.012
 30
0.000000
  70
    32
  0
VERTEX
  8
2
  5
5FA
 10
398.440
 20
273.471
 30
0.000000
  70
    32
  0
VERTEX
  8
2
  5
5FB
 10
402.250
 20
273.968
 30
0.000000
  70
    32
  0
VERTEX
  8
2
  5
5FC
 10
406.049
 20
274.504
 30
0.000000
  70
    32
  0
VERTEX
  8
2
  5
5FD
 10
409.834
 20
275.079
 30
0.000000
  70
    32
  0
VERTEX
  8
2
  5
5FE
 10
413.606
 20
275.692
 30
0.000000
  70
    32
  0
VERTEX
  8
2
  5
5FF
 10
417.363
 20
276.343
 30
0.000000
  70
    32
  0
VERTEX
  8
2
  5
600
 10
421.106
 20
277.033
 30
0.000000
  70
    32
  0
VERTEX
  8
2
  5
601
 10
424.832
 20
277.760
 30
0.000000
  70
    32
  0
VERTEX
  8
2
  5
602
 10
428.541
 20
278.525
 30
0.000000
  70
    32
  0
VERTEX
  8
2
  5
603
 10
432.232
 20
279.327
 30
0.000000
  70
    32
  0
VERTEX
  8
2
  5
604
 10
435.904
 20
280.167
 30
0.000000
  70
    32
  0
VERTEX
  8
2
  5
605
 10
439.557
 20
281.044
 30
0.000000
  70
    32
  0
VERTEX
  8
2
  5
606
 10
443.189
 20
281.958
 30
0.000000
  70
    32
  0
VERTEX
  8
2
  5
607
 10
446.800
 20
282.909
 30
0.000000
  70
    32
  0
VERTEX
  8
2
  5
608
 10
450.389
 20
283.897
 30
0.000000
  70
    32
  0
VERTEX
  8
2
  5
609
 10
453.955
 20
284.920
 30
0.000000
  70
    32
  0
VERTEX
  8
2
  5
60A
 10
457.497
 20
285.980
 30
0.000000
  70
    32
  0
VERTEX
  8
2
  5
60B
 10
461.014
 20
287.075
 30
0.000000
  70
    32
  0
VERTEX
  8
2
  5
60C
 10
464.506
 20
288.207
 30
0.000000
  70
    32
  0
VERTEX
  8
2
  5
60D
 10
467.972
 20
289.373
 30
0.000000
  70
    32
  0
VERTEX
  8
2
  5
60E
 10
471.411
 20
290.574
 30
0.000000
  70
    32
  0
VERTEX
  8
2
  5
60F
 10
474.822
 20
291.811
 30
0.000000
  70
    32
  0
VERTEX
  8
2
  5
610
 10
478.204
 20
293.081
 30
0.000000
  70
    32
  0
VERTEX
  8
2
  5
611
 10
481.557
 20
294.386
 30
0.000000
  70
    32
  0
VERTEX
  8
2
  5
612
 10
484.879
 20
295.725
 30
0.000000
  70
    32
  0
VERTEX
  8
2
  5
613
 10
488.171
 20
297.097
 30
0.000000
  70
    32
  0
VERTEX
  8
2
  5
614
 10
491.431
 20
298.503
 30
0.000000
  70
    32
  0
VERTEX
  8
2
  5
615
 10
494.659
 20
299.942
 30
0.000000
  70
    32
  0
VERTEX
  8
2
  5
616
 10
497.853
 20
301.413
 30
0.000000
  70
    32
  0
VERTEX
  8
2
  5
617
 10
501.013
 20
302.916
 30
0.000000
  70
    32
  0
VERTEX
  8
2
  5
618
 10
504.139
 20
304.451
 30
0.000000
  70
    32
  0
VERTEX
  8
2
  5
619
 10
507.229
 20
306.018
 30
0.000000
  70
    32
  0
VERTEX
  8
2
  5
61A
 10
510.283
 20
307.616
 30
0.000000
  70
    32
  0
VERTEX
  8
2
  5
61B
 10
513.300
 20
309.245
 30
0.000000
  70
    32
  0
VERTEX
  8
2
  5
61C
 10
516.280
 20
310.904
 30
0.000000
  70
    32
  0
VERTEX
  8
2
  5
61D
 10
519.222
 20
312.594
 30
0.000000
  70
    32
  0
VERTEX
  8
2
  5
61E
 10
522.124
 20
314.313
 30
0.000000
  70
    32
  0
VERTEX
  8
2
  5
61F
 10
524.987
 20
316.061
 30
0.000000
  70
    32
  0
VERTEX
  8
2
  5
620
 10
527.810
 20
317.838
 30
0.000000
  70
    32
  0
VERTEX
  8
2
  5
621
 10
530.591
 20
319.643
 30
0.000000
  70
    32
  0
VERTEX
  8
2
  5
622
 10
533.332
 20
321.477
 30
0.000000
  70
    32
  0
VERTEX
  8
2
  5
623
 10
536.030
 20
323.338
 30
0.000000
  70
    32
  0
VERTEX
  8
2
  5
624
 10
538.685
 20
325.226
 30
0.000000
  70
    32
  0
VERTEX
  8
2
  5
625
 10
541.297
 20
327.141
 30
0.000000
  70
    32
  0
VERTEX
  8
2
  5
626
 10
543.864
 20
329.083
 30
0.000000
  70
    32
  0
VERTEX
  8
2
  5
627
 10
546.387
 20
331.050
 30
0.000000
  70
    32
  0
VERTEX
  8
2
  5
628
 10
548.865
 20
333.042
 30
0.000000
  70
    32
  0
VERTEX
  8
2
  5
629
 10
551.297
 20
335.060
 30
0.000000
  70
    32
  0
SEQEND
  8
2
  5
62A
  0
ARC
  5
54
  8
2
  6
CONTINUOUS
 62
     7
 10
351.35319162486797
 20
366.92304646530152
 30
0.0
 40
250.0
 50
23.289874999999999
 51
156.70770555555549
  0
ARC
  5
55
  8
2
  6
CONTINUOUS
 62
     7
 10
209.6198022270666
 20
416.9672885987145
 30
0.0
 40
100.5235005957046
 50
150.97313533521009
 51
217.7368797796546
  0
ARC
  5
56
  8
2
  6
CONTINUOUS
 62
     7
 10
-493.02585346678433
 20
416.9672885987145
 30
0.0
 40
100.5235005957046
210
0.0
220
0.0
230
-1.0
 50
150.97313533521009
 51
234.5707075574322
  0
LINE
  5
57
  8
2
  6
CONTINUOUS
 62
     7
 10
650.12282784692547
 20
410.64326697774283
 30
0.0
 11
651.62282784692559
 21
411.54326697774269
 31
0.0
  0
LINE
  5
58
  8
2
  6
CONTINUOUS
 62
     7
 10
52.422827846925657
 20
410.64326697774283
 30
0.0
 11
51.022827846925559
 21
411.44326697774272
 31
0.0
  0
ARC
  5
59
  8
2
  6
CONTINUOUS
 62
     7
 10
351.33467761940938
 20
313.26568976669228
 30
0.0
 40
320.0
 50
19.007977777777771
 51
160.99810555555561
  0
ARC
  5
5A
  8
2
  6
CONTINUOUS
 62
     7
 10
53.499719659133227
 20
415.8295129052658
 30
0.0
 40
5.0
 50
160.99810555555561
 51
240.25511944444449
  0
ARC
  5
5B
  8
2
  6
CONTINUOUS
 62
     7
 10
-50.013790536671642
 20
406.27411304267088
 30
0.0
 40
5.0
210
0.0
220
0.0
230
-1.0
 50
119.35775213176061
 51
193.1116437984272
  0
ARC
  5
5C
  8
2
  6
CONTINUOUS
 62
     7
 10
-652.6513969937813
 20
406.33527141669703
 30
0.0
 40
5.0
210
0.0
220
0.0
230
-1.0
 50
346.85047990953842
 51
59.99507990953839
  0
ARC
  5
5D
  8
2
  6
CONTINUOUS
 62
     7
 10
649.15874672871314
 20
415.8611275754796
 30
0.0
 40
5.0
 50
300.02712500000001
 51
19.007977777777771
  0
POLYLINE
  5
83
  8
2
  6
CONTINUOUS
 62
     7
 10
351.34824374424193
 20
530.93652436257378
 30
0.0
 66
     1
 70
     8
  0
VERTEX
  8
2
  5
62B
 10
351.348
 20
530.937
 30
0.000000
  70
    32
  0
VERTEX
  8
2
  5
62C
 10
350.220
 20
530.931
 30
0.000000
  70
    32
  0
VERTEX
  8
2
  5
62D
 10
349.094
 20
530.913
 30
0.000000
  70
    32
  0
VERTEX
  8
2
  5
62E
 10
347.973
 20
530.883
 30
0.000000
  70
    32
  0
VERTEX
  8
2
  5
62F
 10
346.861
 20
530.842
 30
0.000000
  70
    32
  0
VERTEX
  8
2
  5
630
 10
345.760
 20
530.790
 30
0.000000
  70
    32
  0
VERTEX
  8
2
  5
631
 10
344.672
 20
530.726
 30
0.000000
  70
    32
  0
VERTEX
  8
2
  5
632
 10
343.600
 20
530.650
 30
0.000000
  70
    32
  0
VERTEX
  8
2
  5
633
 10
342.547
 20
530.564
 30
0.000000
  70
    32
  0
VERTEX
  8
2
  5
634
 10
341.514
 20
530.466
 30
0.000000
  70
    32
  0
VERTEX
  8
2
  5
635
 10
340.506
 20
530.358
 30
0.000000
  70
    32
  0
VERTEX
  8
2
  5
636
 10
339.524
 20
530.239
 30
0.000000
  70
    32
  0
VERTEX
  8
2
  5
637
 10
338.570
 20
530.111
 30
0.000000
  70
    32
  0
VERTEX
  8
2
  5
638
 10
337.647
 20
529.972
 30
0.000000
  70
    32
  0
VERTEX
  8
2
  5
639
 10
336.757
 20
529.824
 30
0.000000
  70
    32
  0
VERTEX
  8
2
  5
63A
 10
335.902
 20
529.667
 30
0.000000
  70
    32
  0
VERTEX
  8
2
  5
63B
 10
335.085
 20
529.501
 30
0.000000
  70
    32
  0
VERTEX
  8
2
  5
63C
 10
334.306
 20
529.327
 30
0.000000
  70
    32
  0
VERTEX
  8
2
  5
63D
 10
333.569
 20
529.145
 30
0.000000
  70
    32
  0
VERTEX
  8
2
  5
63E
 10
332.874
 20
528.955
 30
0.000000
  70
    32
  0
VERTEX
  8
2
  5
63F
 10
332.224
 20
528.759
 30
0.000000
  70
    32
  0
VERTEX
  8
2
  5
640
 10
331.621
 20
528.556
 30
0.000000
  70
    32
  0
VERTEX
  8
2
  5
641
 10
331.064
 20
528.346
 30
0.000000
  70
    32
  0
VERTEX
  8
2
  5
642
 10
330.557
 20
528.132
 30
0.000000
  70
    32
  0
VERTEX
  8
2
  5
643
 10
330.099
 20
527.912
 30
0.000000
  70
    32
  0
VERTEX
  8
2
  5
644
 10
329.693
 20
527.687
 30
0.000000
  70
    32
  0
VERTEX
  8
2
  5
645
 10
329.339
 20
527.459
 30
0.000000
  70
    32
  0
VERTEX
  8
2
  5
646
 10
329.038
 20
527.227
 30
0.000000
  70
    32
  0
VERTEX
  8
2
  5
647
 10
328.790
 20
526.992
 30
0.000000
  70
    32
  0
VERTEX
  8
2
  5
648
 10
328.597
 20
526.756
 30
0.000000
  70
    32
  0
VERTEX
  8
2
  5
649
 10
328.459
 20
526.517
 30
0.000000
  70
    32
  0
VERTEX
  8
2
  5
64A
 10
328.376
 20
526.277
 30
0.000000
  70
    32
  0
VERTEX
  8
2
  5
64B
 10
328.348
 20
526.037
 30
0.000000
  70
    32
  0
VERTEX
  8
2
  5
64C
 10
328.376
 20
525.796
 30
0.000000
  70
    32
  0
VERTEX
  8
2
  5
64D
 10
328.459
 20
525.556
 30
0.000000
  70
    32
  0
VERTEX
  8
2
  5
64E
 10
328.597
 20
525.318
 30
0.000000
  70
    32
  0
VERTEX
  8
2
  5
64F
 10
328.790
 20
525.081
 30
0.000000
  70
    32
  0
VERTEX
  8
2
  5
650
 10
329.038
 20
524.846
 30
0.000000
  70
    32
  0
VERTEX
  8
2
  5
651
 10
329.339
 20
524.614
 30
0.000000
  70
    32
  0
VERTEX
  8
2
  5
652
 10
329.693
 20
524.386
 30
0.000000
  70
    32
  0
VERTEX
  8
2
  5
653
 10
330.099
 20
524.161
 30
0.000000
  70
    32
  0
VERTEX
  8
2
  5
654
 10
330.556
 20
523.942
 30
0.000000
  70
    32
  0
VERTEX
  8
2
  5
655
 10
331.064
 20
523.727
 30
0.000000
  70
    32
  0
VERTEX
  8
2
  5
656
 10
331.620
 20
523.517
 30
0.000000
  70
    32
  0
VERTEX
  8
2
  5
657
 10
332.224
 20
523.314
 30
0.000000
  70
    32
  0
VERTEX
  8
2
  5
658
 10
332.874
 20
523.118
 30
0.000000
  70
    32
  0
VERTEX
  8
2
  5
659
 10
333.569
 20
522.928
 30
0.000000
  70
    32
  0
VERTEX
  8
2
  5
65A
 10
334.306
 20
522.746
 30
0.000000
  70
    32
  0
VERTEX
  8
2
  5
65B
 10
335.085
 20
522.572
 30
0.000000
  70
    32
  0
VERTEX
  8
2
  5
65C
 10
335.902
 20
522.406
 30
0.000000
  70
    32
  0
VERTEX
  8
2
  5
65D
 10
336.757
 20
522.249
 30
0.000000
  70
    32
  0
VERTEX
  8
2
  5
65E
 10
337.647
 20
522.101
 30
0.000000
  70
    32
  0
VERTEX
  8
2
  5
65F
 10
338.570
 20
521.962
 30
0.000000
  70
    32
  0
VERTEX
  8
2
  5
660
 10
339.524
 20
521.834
 30
0.000000
  70
    32
  0
VERTEX
  8
2
  5
661
 10
340.506
 20
521.715
 30
0.000000
  70
    32
  0
VERTEX
  8
2
  5
662
 10
341.514
 20
521.607
 30
0.000000
  70
    32
  0
VERTEX
  8
2
  5
663
 10
342.546
 20
521.510
 30
0.000000
  70
    32
  0
VERTEX
  8
2
  5
664
 10
343.600
 20
521.423
 30
0.000000
  70
    32
  0
VERTEX
  8
2
  5
665
 10
344.672
 20
521.348
 30
0.000000
  70
    32
  0
VERTEX
  8
2
  5
666
 10
345.760
 20
521.283
 30
0.000000
  70
    32
  0
VERTEX
  8
2
  5
667
 10
346.861
 20
521.231
 30
0.000000
  70
    32
  0
VERTEX
  8
2
  5
668
 10
347.973
 20
521.190
 30
0.000000
  70
    32
  0
VERTEX
  8
2
  5
669
 10
349.094
 20
521.160
 30
0.000000
  70
    32
  0
VERTEX
  8
2
  5
66A
 10
350.220
 20
521.142
 30
0.000000
  70
    32
  0
VERTEX
  8
2
  5
66B
 10
351.348
 20
521.137
 30
0.000000
  70
    32
  0
VERTEX
  8
2
  5
66C
 10
352.477
 20
521.142
 30
0.000000
  70
    32
  0
VERTEX
  8
2
  5
66D
 10
353.603
 20
521.160
 30
0.000000
  70
    32
  0
VERTEX
  8
2
  5
66E
 10
354.723
 20
521.190
 30
0.000000
  70
    32
  0
VERTEX
  8
2
  5
66F
 10
355.835
 20
521.231
 30
0.000000
  70
    32
  0
VERTEX
  8
2
  5
670
 10
356.937
 20
521.283
 30
0.000000
  70
    32
  0
VERTEX
  8
2
  5
671
 10
358.025
 20
521.348
 30
0.000000
  70
    32
  0
VERTEX
  8
2
  5
672
 10
359.097
 20
521.423
 30
0.000000
  70
    32
  0
VERTEX
  8
2
  5
673
 10
360.150
 20
521.510
 30
0.000000
  70
    32
  0
VERTEX
  8
2
  5
674
 10
361.182
 20
521.607
 30
0.000000
  70
    32
  0
VERTEX
  8
2
  5
675
 10
362.190
 20
521.715
 30
0.000000
  70
    32
  0
VERTEX
  8
2
  5
676
 10
363.172
 20
521.834
 30
0.000000
  70
    32
  0
VERTEX
  8
2
  5
677
 10
364.126
 20
521.962
 30
0.000000
  70
    32
  0
VERTEX
  8
2
  5
678
 10
365.049
 20
522.101
 30
0.000000
  70
    32
  0
VERTEX
  8
2
  5
679
 10
365.939
 20
522.249
 30
0.000000
  70
    32
  0
VERTEX
  8
2
  5
67A
 10
366.794
 20
522.406
 30
0.000000
  70
    32
  0
VERTEX
  8
2
  5
67B
 10
367.612
 20
522.572
 30
0.000000
  70
    32
  0
VERTEX
  8
2
  5
67C
 10
368.390
 20
522.746
 30
0.000000
  70
    32
  0
VERTEX
  8
2
  5
67D
 10
369.127
 20
522.928
 30
0.000000
  70
    32
  0
VERTEX
  8
2
  5
67E
 10
369.822
 20
523.118
 30
0.000000
  70
    32
  0
VERTEX
  8
2
  5
67F
 10
370.472
 20
523.314
 30
0.000000
  70
    32
  0
VERTEX
  8
2
  5
680
 10
371.076
 20
523.517
 30
0.000000
  70
    32
  0
VERTEX
  8
2
  5
681
 10
371.632
 20
523.727
 30
0.000000
  70
    32
  0
VERTEX
  8
2
  5
682
 10
372.140
 20
523.941
 30
0.000000
  70
    32
  0
VERTEX
  8
2
  5
683
 10
372.597
 20
524.161
 30
0.000000
  70
    32
  0
VERTEX
  8
2
  5
684
 10
373.004
 20
524.386
 30
0.000000
  70
    32
  0
VERTEX
  8
2
  5
685
 10
373.358
 20
524.614
 30
0.000000
  70
    32
  0
VERTEX
  8
2
  5
686
 10
373.659
 20
524.846
 30
0.000000
  70
    32
  0
VERTEX
  8
2
  5
687
 10
373.906
 20
525.081
 30
0.000000
  70
    32
  0
VERTEX
  8
2
  5
688
 10
374.099
 20
525.318
 30
0.000000
  70
    32
  0
VERTEX
  8
2
  5
689
 10
374.237
 20
525.556
 30
0.000000
  70
    32
  0
VERTEX
  8
2
  5
68A
 10
374.321
 20
525.796
 30
0.000000
  70
    32
  0
VERTEX
  8
2
  5
68B
 10
374.348
 20
526.036
 30
0.000000
  70
    32
  0
VERTEX
  8
2
  5
68C
 10
374.321
 20
526.277
 30
0.000000
  70
    32
  0
VERTEX
  8
2
  5
68D
 10
374.238
 20
526.517
 30
0.000000
  70
    32
  0
VERTEX
  8
2
  5
68E
 10
374.099
 20
526.755
 30
0.000000
  70
    32
  0
VERTEX
  8
2
  5
68F
 10
373.906
 20
526.992
 30
0.000000
  70
    32
  0
VERTEX
  8
2
  5
690
 10
373.659
 20
527.227
 30
0.000000
  70
    32
  0
VERTEX
  8
2
  5
691
 10
373.358
 20
527.459
 30
0.000000
  70
    32
  0
VERTEX
  8
2
  5
692
 10
373.004
 20
527.687
 30
0.000000
  70
    32
  0
VERTEX
  8
2
  5
693
 10
372.598
 20
527.912
 30
0.000000
  70
    32
  0
VERTEX
  8
2
  5
694
 10
372.140
 20
528.132
 30
0.000000
  70
    32
  0
VERTEX
  8
2
  5
695
 10
371.633
 20
528.346
 30
0.000000
  70
    32
  0
VERTEX
  8
2
  5
696
 10
371.076
 20
528.556
 30
0.000000
  70
    32
  0
VERTEX
  8
2
  5
697
 10
370.472
 20
528.759
 30
0.000000
  70
    32
  0
VERTEX
  8
2
  5
698
 10
369.822
 20
528.955
 30
0.000000
  70
    32
  0
VERTEX
  8
2
  5
699
 10
369.128
 20
529.145
 30
0.000000
  70
    32
  0
VERTEX
  8
2
  5
69A
 10
368.390
 20
529.327
 30
0.000000
  70
    32
  0
VERTEX
  8
2
  5
69B
 10
367.612
 20
529.501
 30
0.000000
  70
    32
  0
VERTEX
  8
2
  5
69C
 10
366.794
 20
529.667
 30
0.000000
  70
    32
  0
VERTEX
  8
2
  5
69D
 10
365.939
 20
529.824
 30
0.000000
  70
    32
  0
VERTEX
  8
2
  5
69E
 10
365.049
 20
529.972
 30
0.000000
  70
    32
  0
VERTEX
  8
2
  5
69F
 10
364.127
 20
530.111
 30
0.000000
  70
    32
  0
VERTEX
  8
2
  5
6A0
 10
363.173
 20
530.239
 30
0.000000
  70
    32
  0
VERTEX
  8
2
  5
6A1
 10
362.191
 20
530.358
 30
0.000000
  70
    32
  0
VERTEX
  8
2
  5
6A2
 10
361.182
 20
530.466
 30
0.000000
  70
    32
  0
VERTEX
  8
2
  5
6A3
 10
360.150
 20
530.564
 30
0.000000
  70
    32
  0
VERTEX
  8
2
  5
6A4
 10
359.097
 20
530.650
 30
0.000000
  70
    32
  0
VERTEX
  8
2
  5
6A5
 10
358.025
 20
530.726
 30
0.000000
  70
    32
  0
VERTEX
  8
2
  5
6A6
 10
356.937
 20
530.790
 30
0.000000
  70
    32
  0
VERTEX
  8
2
  5
6A7
 10
355.836
 20
530.842
 30
0.000000
  70
    32
  0
VERTEX
  8
2
  5
6A8
 10
354.723
 20
530.883
 30
0.000000
  70
    32
  0
VERTEX
  8
2
  5
6A9
 10
353.603
 20
530.913
 30
0.000000
  70
    32
  0
VERTEX
  8
2
  5
6AA
 10
352.477
 20
530.931
 30
0.000000
  70
    32
  0
VERTEX
  8
2
  5
6AB
 10
351.348
 20
530.937
 30
0.000000
  70
    32
  0
SEQEND
  8
2
  5
6AC
  0
LINE
  5
84
  8
2
  6
CONTINUOUS
 62
     7
 10
1111.6228278469259
 20
159.5432669777426
 30
0.0
 11
1110.922827846925
 21
159.5432669777426
 31
0.0
  0
CIRCLE
  5
86
  8
2
  6
CONTINUOUS
 62
     7
 10
351.32282784692552
 20
589.54326697774263
 30
0.0
 40
17.5
  0
POLYLINE
  5
87
  8
2
  6
CONTINUOUS
 62
     7
 66
     1
 10
0.0
 20
0.0
 30
0.0
  0
VERTEX
  5
207
  8
2
  6
CONTINUOUS
 62
     7
 10
1120.7228278469249
 20
241.54326697774269
 30
0.0
  0
VERTEX
  5
208
  8
2
  6
CONTINUOUS
 62
     7
 10
1108.375964310346
 20
238.78727065717169
 30
0.0
 42
2.0099981970028722
  0
VERTEX
  5
209
  8
2
  6
CONTINUOUS
 62
     7
 10
1133.8228278469251
 20
219.54326697774269
 30
0.0
  0
VERTEX
  5
20A
  8
2
  6
CONTINUOUS
 62
     7
 10
1133.8228278469251
 20
249.07429278125099
 30
0.0
 42
0.3527356996132659
  0
VERTEX
  5
20B
  8
2
  6
CONTINUOUS
 62
     7
 10
1114.1408034461749
 20
273.50212746038608
 30
0.0
 42
-0.3490298747751683
  0
VERTEX
  5
20C
  8
2
  6
CONTINUOUS
 62
     7
 10
1016.683888874275
 20
391.52126396961648
 30
0.0
  0
VERTEX
  5
20D
  8
2
  6
CONTINUOUS
 62
     7
 10
1013.822827846925
 20
447.18700312541858
 30
0.0
 42
0.3066784470630505
  0
VERTEX
  5
20E
  8
2
  6
CONTINUOUS
 62
     7
 10
1008.793953257681
 20
454.61481681344031
 30
0.0
  0
VERTEX
  5
20F
  8
2
  6
CONTINUOUS
 62
     7
 10
1005.226581204928
 20
455.99492582227288
 30
0.0
 42
0.0933695247610767
  0
VERTEX
  5
210
  8
2
  6
CONTINUOUS
 62
     7
 10
1002.322827846925
 20
456.54326697774258
 30
0.0
  0
VERTEX
  5
211
  8
2
  6
CONTINUOUS
 62
     7
 10
967.82282784692575
 20
456.54326697774258
 30
0.0
  0
VERTEX
  5
212
  8
2
  6
CONTINUOUS
 62
     7
 10
967.82282784692575
 20
451.54326697774258
 30
0.0
  0
VERTEX
  5
213
  8
2
  6
CONTINUOUS
 62
     7
 10
1003.113917315287
 20
451.54326697774258
 30
0.0
 42
-0.1085250206581806
  0
VERTEX
  5
214
  8
2
  6
CONTINUOUS
 62
     7
 10
1004.371091899864
 20
451.2671451071555
 30
0.0
  0
VERTEX
  5
215
  8
2
  6
CONTINUOUS
 62
     7
 10
1007.041243244923
 20
450.03508235641038
 30
0.0
 42
-0.2963915377704781
  0
VERTEX
  5
216
  8
2
  6
CONTINUOUS
 62
     7
 10
1008.822827846926
 20
447.3432669777427
 30
0.0
  0
VERTEX
  5
217
  8
2
  6
CONTINUOUS
 62
     7
 10
1010.81284039043
 20
391.0832513410316
 30
0.0
 42
0.3428404423874756
  0
VERTEX
  5
218
  8
2
  6
CONTINUOUS
 62
     7
 10
1113.0762878727701
 20
268.61676076962459
 30
0.0
 42
-0.2912619130969842
  0
VERTEX
  5
219
  8
2
  6
CONTINUOUS
 62
     7
 10
1128.3284688225631
 20
253.49356477887801
 30
0.0
 42
-0.4177243789044141
  0
VERTEX
  5
21A
  8
2
  6
CONTINUOUS
 62
     7
 10
1120.7228278469249
 20
241.54326697774269
 30
0.0
  0
SEQEND
  5
21B
  8
2
  6
CONTINUOUS
 62
     7
  0
LINE
  5
9D
  8
2
  6
CONTINUOUS
 62
     7
 10
1093.8228278469251
 20
179.5432669777426
 30
0.0
 11
1093.8228278469251
 21
218.94326697774261
 31
0.0
  0
LINE
  5
9E
  8
2
  6
CONTINUOUS
 62
     7
 10
1133.8228278469251
 20
179.5432669777426
 30
0.0
 11
1133.8228278469251
 21
225.3432669777427
 31
0.0
  0
ARC
  5
9F
  8
2
  6
CONTINUOUS
 62
     7
 10
1113.8228278469251
 20
179.5432669777426
 30
0.0
 40
20.0
 50
180.0
 51
0.0
  0
TEXT
  5
A1
  8
5
  6
CONTINUOUS
 62
     7
 10
922.72282784692561
 20
470.04326697774269
 30
0.0
 40
15.0
  1
46
 50
90.0
 41
0.8
  7
ROMANS
 11
915.2228278469255
 21
470.04326697774269
 31
0.0
 73
     2
  0
LINE
  5
A2
  8
5
  6
CONTINUOUS
 62
     7
 10
930.22282784692561
 20
502.54326697774269
 30
0.0
 11
930.22282784692561
 21
456.54326697774258
 31
0.0
  0
POLYLINE
  5
A3
  8
5
  6
CONTINUOUS
 62
     7
 66
     1
 10
0.0
 20
0.0
 30
0.0
 70
     1
  0
VERTEX
  5
21C
  8
5
  6
CONTINUOUS
 62
     7
 10
926.52282784692545
 20
487.54326697774269
 30
0.0
  0
VERTEX
  5
21D
  8
5
  6
CONTINUOUS
 62
     7
 10
930.22282784692561
 20
502.54326697774269
 30
0.0
  0
VERTEX
  5
21E
  8
5
  6
CONTINUOUS
 62
     7
 10
933.92282784692554
 20
487.54326697774269
 30
0.0
  0
SEQEND
  5
21F
  8
5
  6
CONTINUOUS
 62
     7
  0
POLYLINE
  5
A4
  8
5
  6
CONTINUOUS
 62
     7
 66
     1
 10
0.0
 20
0.0
 30
0.0
 70
     1
  0
VERTEX
  5
220
  8
5
  6
CONTINUOUS
 62
     7
 10
933.92282784692554
 20
471.54326697774258
 30
0.0
  0
VERTEX
  5
221
  8
5
  6
CONTINUOUS
 62
     7
 10
930.22282784692561
 20
456.54326697774258
 30
0.0
  0
VERTEX
  5
222
  8
5
  6
CONTINUOUS
 62
     7
 10
926.52282784692545
 20
471.54326697774258
 30
0.0
  0
SEQEND
  5
223
  8
5
  6
CONTINUOUS
 62
     7
  0
LINE
  5
A5
  8
5
  6
CONTINUOUS
 62
     7
 10
965.32282784692552
 20
502.54326697774269
 30
0.0
 11
922.72282784692561
 21
502.54326697774269
 31
0.0
  0
LINE
  5
A6
  8
5
  6
CONTINUOUS
 62
     7
 10
965.32282784692552
 20
456.54326697774258
 30
0.0
 11
922.72282784692561
 21
456.54326697774258
 31
0.0
  0
TEXT
  5
A7
  8
5
  6
CONTINUOUS
 62
     7
 10
1041.1228278469259
 20
105.74326697774261
 30
0.0
 40
15.0
  1
166
 41
0.8
  7
ROMANS
 11
1041.1228278469259
 21
113.24326697774261
 31
0.0
 73
     2
  0
LINE
  5
A8
  8
5
  6
CONTINUOUS
 62
     7
 10
1133.8228278469251
 20
98.243266977742707
 30
0.0
 11
967.82282784692575
 21
98.243266977742707
 31
0.0
  0
POLYLINE
  5
A9
  8
5
  6
CONTINUOUS
 62
     7
 66
     1
 10
0.0
 20
0.0
 30
0.0
 70
     1
  0
VERTEX
  5
224
  8
5
  6
CONTINUOUS
 62
     7
 10
1118.8228278469251
 20
102.0432669777426
 30
0.0
  0
VERTEX
  5
225
  8
5
  6
CONTINUOUS
 62
     7
 10
1133.8228278469251
 20
98.243266977742707
 30
0.0
  0
VERTEX
  5
226
  8
5
  6
CONTINUOUS
 62
     7
 10
1118.8228278469251
 20
94.443266977742624
 30
0.0
  0
SEQEND
  5
227
  8
5
  6
CONTINUOUS
 62
     7
  0
POLYLINE
  5
AA
  8
5
  6
CONTINUOUS
 62
     7
 66
     1
 10
0.0
 20
0.0
 30
0.0
 70
     1
  0
VERTEX
  5
228
  8
5
  6
CONTINUOUS
 62
     7
 10
982.82282784692552
 20
94.443266977742624
 30
0.0
  0
VERTEX
  5
229
  8
5
  6
CONTINUOUS
 62
     7
 10
967.82282784692575
 20
98.243266977742707
 30
0.0
  0
VERTEX
  5
22A
  8
5
  6
CONTINUOUS
 62
     7
 10
982.82282784692552
 20
102.0432669777426
 30
0.0
  0
SEQEND
  5
22B
  8
5
  6
CONTINUOUS
 62
     7
  0
LINE
  5
AB
  8
5
  6
CONTINUOUS
 62
     7
 10
1133.8228278469251
 20
164.6432669777426
 30
0.0
 11
1133.8228278469251
 21
90.743266977742664
 31
0.0
  0
LINE
  5
AC
  8
5
  6
CONTINUOUS
 62
     7
 10
967.82282784692575
 20
418.54326697774269
 30
0.0
 11
967.82282784692575
 21
90.743266977742664
 31
0.0
  0
TEXT
  5
AD
  8
5
  6
CONTINUOUS
 62
     7
 10
1037.7228278469249
 20
143.44326697774261
 30
0.0
 40
15.0
  1
120
 41
0.8
  7
ROMANS
 11
1037.7228278469249
 21
150.94326697774261
 31
0.0
 73
     2
  0
LINE
  5
AE
  8
5
  6
CONTINUOUS
 62
     7
 10
1133.8228278469251
 20
135.94326697774261
 30
0.0
 11
1013.822827846925
 21
135.94326697774261
 31
0.0
  0
POLYLINE
  5
AF
  8
5
  6
CONTINUOUS
 62
     7
 66
     1
 10
0.0
 20
0.0
 30
0.0
 70
     1
  0
VERTEX
  5
22C
  8
5
  6
CONTINUOUS
 62
     7
 10
1118.8228278469251
 20
139.64326697774271
 30
0.0
  0
VERTEX
  5
22D
  8
5
  6
CONTINUOUS
 62
     7
 10
1133.8228278469251
 20
135.94326697774261
 30
0.0
  0
VERTEX
  5
22E
  8
5
  6
CONTINUOUS
 62
     7
 10
1118.8228278469251
 20
132.24326697774259
 30
0.0
  0
SEQEND
  5
22F
  8
5
  6
CONTINUOUS
 62
     7
  0
POLYLINE
  5
B0
  8
5
  6
CONTINUOUS
 62
     7
 66
     1
 10
0.0
 20
0.0
 30
0.0
 70
     1
  0
VERTEX
  5
230
  8
5
  6
CONTINUOUS
 62
     7
 10
1028.8228278469251
 20
132.24326697774259
 30
0.0
  0
VERTEX
  5
231
  8
5
  6
CONTINUOUS
 62
     7
 10
1013.822827846925
 20
135.94326697774261
 30
0.0
  0
VERTEX
  5
232
  8
5
  6
CONTINUOUS
 62
     7
 10
1028.8228278469251
 20
139.64326697774271
 30
0.0
  0
SEQEND
  5
233
  8
5
  6
CONTINUOUS
 62
     7
  0
LINE
  5
B1
  8
5
  6
CONTINUOUS
 62
     7
 10
1133.8228278469251
 20
164.84326697774259
 30
0.0
 11
1133.8228278469251
 21
128.4432669777427
 31
0.0
  0
LINE
  5
B2
  8
5
  6
CONTINUOUS
 62
     7
 10
1013.822827846925
 20
201.8432669777427
 30
0.0
 11
1013.822827846925
 21
128.4432669777427
 31
0.0
  0
TEXT
  5
B3
  8
5
  6
CONTINUOUS
 62
     7
 10
336.52282784692562
 20
80.443266977742638
 30
0.0
 40
15.0
  1
600
 41
0.8
  7
ROMANS
 11
336.52282784692562
 21
87.943266977742638
 31
0.0
 73
     2
  0
LINE
  5
B4
  8
5
  6
CONTINUOUS
 62
     7
 10
51.32282784692552
 20
72.943266977742638
 30
0.0
 11
651.32282784692563
 21
72.943266977742638
 31
0.0
  0
POLYLINE
  5
B5
  8
5
  6
CONTINUOUS
 62
     7
 66
     1
 10
0.0
 20
0.0
 30
0.0
 70
     1
  0
VERTEX
  5
234
  8
5
  6
CONTINUOUS
 62
     7
 10
66.32282784692552
 20
69.24326697774265
 30
0.0
  0
VERTEX
  5
235
  8
5
  6
CONTINUOUS
 62
     7
 10
51.32282784692552
 20
72.943266977742638
 30
0.0
  0
VERTEX
  5
236
  8
5
  6
CONTINUOUS
 62
     7
 10
66.32282784692552
 20
76.643266977742684
 30
0.0
  0
SEQEND
  5
237
  8
5
  6
CONTINUOUS
 62
     7
  0
POLYLINE
  5
B6
  8
5
  6
CONTINUOUS
 62
     7
 66
     1
 10
0.0
 20
0.0
 30
0.0
 70
     1
  0
VERTEX
  5
238
  8
5
  6
CONTINUOUS
 62
     7
 10
636.32282784692552
 20
76.643266977742684
 30
0.0
  0
VERTEX
  5
239
  8
5
  6
CONTINUOUS
 62
     7
 10
651.32282784692563
 20
72.943266977742638
 30
0.0
  0
VERTEX
  5
23A
  8
5
  6
CONTINUOUS
 62
     7
 10
636.32282784692552
 20
69.24326697774265
 30
0.0
  0
SEQEND
  5
23B
  8
5
  6
CONTINUOUS
 62
     7
  0
LINE
  5
B7
  8
5
  6
CONTINUOUS
 62
     7
 10
51.32282784692552
 20
148.74326697774259
 30
0.0
 11
51.32282784692552
 21
65.443266977742695
 31
0.0
  0
LINE
  5
B8
  8
5
  6
CONTINUOUS
 62
     7
 10
651.32282784692563
 20
148.74326697774259
 30
0.0
 11
651.32282784692563
 21
65.443266977742695
 31
0.0
  0
TEXT
  5
B9
  8
5
  6
CONTINUOUS
 62
     7
 10
1170.8228278469251
 20
606.84326697774281
 30
0.0
 40
15.0
  1
44
 50
90.0
 41
0.8
  7
ROMANS
 11
1163.3228278469251
 21
606.84326697774281
 31
0.0
 73
     2
  0
LINE
  5
BA
  8
5
  6
CONTINUOUS
 62
     7
 10
1178.3228278469251
 20
633.54326697774275
 30
0.0
 11
1178.3228278469251
 21
589.54326697774263
 31
0.0
  0
POLYLINE
  5
BB
  8
5
  6
CONTINUOUS
 62
     7
 66
     1
 10
0.0
 20
0.0
 30
0.0
 70
     1
  0
VERTEX
  5
23C
  8
5
  6
CONTINUOUS
 62
     7
 10
1174.5228278469251
 20
618.54326697774275
 30
0.0
  0
VERTEX
  5
23D
  8
5
  6
CONTINUOUS
 62
     7
 10
1178.3228278469251
 20
633.54326697774275
 30
0.0
  0
VERTEX
  5
23E
  8
5
  6
CONTINUOUS
 62
     7
 10
1182.1228278469259
 20
618.54326697774275
 30
0.0
  0
SEQEND
  5
23F
  8
5
  6
CONTINUOUS
 62
     7
  0
POLYLINE
  5
BC
  8
5
  6
CONTINUOUS
 62
     7
 66
     1
 10
0.0
 20
0.0
 30
0.0
 70
     1
  0
VERTEX
  5
240
  8
5
  6
CONTINUOUS
 62
     7
 10
1182.1228278469259
 20
604.54326697774263
 30
0.0
  0
VERTEX
  5
241
  8
5
  6
CONTINUOUS
 62
     7
 10
1178.3228278469251
 20
589.54326697774263
 30
0.0
  0
VERTEX
  5
242
  8
5
  6
CONTINUOUS
 62
     7
 10
1174.5228278469251
 20
604.54326697774263
 30
0.0
  0
SEQEND
  5
243
  8
5
  6
CONTINUOUS
 62
     7
  0
LINE
  5
BD
  8
5
  6
CONTINUOUS
 62
     7
 10
1152.922827846925
 20
633.54326697774275
 30
0.0
 11
1185.8228278469251
 21
633.54326697774275
 31
0.0
  0
LINE
  5
BE
  8
5
  6
CONTINUOUS
 62
     7
 10
1161.5228278469251
 20
589.54326697774263
 30
0.0
 11
1185.8228278469251
 21
589.54326697774263
 31
0.0
  0
TEXT
  5
BF
  8
5
  6
CONTINUOUS
 62
     7
 10
1208.3228278469251
 20
578.44326697774272
 30
0.0
 40
15.0
  1
99
 50
90.0
 41
0.8
  7
ROMANS
 11
1200.8228278469251
 21
578.44326697774272
 31
0.0
 73
     2
  0
LINE
  5
C0
  8
5
  6
CONTINUOUS
 62
     7
 10
1215.8228278469251
 20
633.54326697774275
 30
0.0
 11
1215.8228278469251
 21
534.54326697774275
 31
0.0
  0
POLYLINE
  5
C1
  8
5
  6
CONTINUOUS
 62
     7
 66
     1
 10
0.0
 20
0.0
 30
0.0
 70
     1
  0
VERTEX
  5
244
  8
5
  6
CONTINUOUS
 62
     7
 10
1212.1228278469259
 20
618.54326697774275
 30
0.0
  0
VERTEX
  5
245
  8
5
  6
CONTINUOUS
 62
     7
 10
1215.8228278469251
 20
633.54326697774275
 30
0.0
  0
VERTEX
  5
246
  8
5
  6
CONTINUOUS
 62
     7
 10
1219.5228278469251
 20
618.54326697774275
 30
0.0
  0
SEQEND
  5
247
  8
5
  6
CONTINUOUS
 62
     7
  0
POLYLINE
  5
C2
  8
5
  6
CONTINUOUS
 62
     7
 66
     1
 10
0.0
 20
0.0
 30
0.0
 70
     1
  0
VERTEX
  5
248
  8
5
  6
CONTINUOUS
 62
     7
 10
1219.5228278469251
 20
549.54326697774275
 30
0.0
  0
VERTEX
  5
249
  8
5
  6
CONTINUOUS
 62
     7
 10
1215.8228278469251
 20
534.54326697774275
 30
0.0
  0
VERTEX
  5
24A
  8
5
  6
CONTINUOUS
 62
     7
 10
1212.1228278469259
 20
549.54326697774275
 30
0.0
  0
SEQEND
  5
24B
  8
5
  6
CONTINUOUS
 62
     7
  0
LINE
  5
C3
  8
5
  6
CONTINUOUS
 62
     7
 10
1141.3228278469251
 20
633.54326697774275
 30
0.0
 11
1223.3228278469251
 21
633.54326697774275
 31
0.0
  0
LINE
  5
C4
  8
5
  6
CONTINUOUS
 62
     7
 10
1141.3228278469251
 20
534.54326697774275
 30
0.0
 11
1223.3228278469251
 21
534.54326697774275
 31
0.0
  0
TEXT
  5
C5
  8
5
  6
CONTINUOUS
 62
     7
 10
1253.122827846925
 20
449.8432669777427
 30
0.0
 40
15.0
  1
363
 50
90.0
 41
0.8
  7
ROMANS
 11
1245.6228278469259
 21
449.8432669777427
 31
0.0
 73
     2
  0
LINE
  5
C6
  8
5
  6
CONTINUOUS
 62
     7
 10
1260.6228278469259
 20
633.54326697774275
 30
0.0
 11
1260.6228278469259
 21
270.54326697774269
 31
0.0
  0
POLYLINE
  5
C7
  8
5
  6
CONTINUOUS
 62
     7
 66
     1
 10
0.0
 20
0.0
 30
0.0
 70
     1
  0
VERTEX
  5
24C
  8
5
  6
CONTINUOUS
 62
     7
 10
1256.922827846925
 20
618.54326697774275
 30
0.0
  0
VERTEX
  5
24D
  8
5
  6
CONTINUOUS
 62
     7
 10
1260.6228278469259
 20
633.54326697774275
 30
0.0
  0
VERTEX
  5
24E
  8
5
  6
CONTINUOUS
 62
     7
 10
1264.3228278469251
 20
618.54326697774275
 30
0.0
  0
SEQEND
  5
24F
  8
5
  6
CONTINUOUS
 62
     7
  0
POLYLINE
  5
C8
  8
5
  6
CONTINUOUS
 62
     7
 66
     1
 10
0.0
 20
0.0
 30
0.0
 70
     1
  0
VERTEX
  5
250
  8
5
  6
CONTINUOUS
 62
     7
 10
1264.3228278469251
 20
285.54326697774258
 30
0.0
  0
VERTEX
  5
251
  8
5
  6
CONTINUOUS
 62
     7
 10
1260.6228278469259
 20
270.54326697774269
 30
0.0
  0
VERTEX
  5
252
  8
5
  6
CONTINUOUS
 62
     7
 10
1256.922827846925
 20
285.54326697774258
 30
0.0
  0
SEQEND
  5
253
  8
5
  6
CONTINUOUS
 62
     7
  0
LINE
  5
C9
  8
5
  6
CONTINUOUS
 62
     7
 10
1141.3228278469251
 20
633.54326697774275
 30
0.0
 11
1268.1228278469259
 21
633.54326697774275
 31
0.0
  0
LINE
  5
CA
  8
5
  6
CONTINUOUS
 62
     7
 10
1141.3228278469251
 20
270.54326697774269
 30
0.0
 11
1268.1228278469259
 21
270.54326697774269
 31
0.0
  0
TEXT
  5
CB
  8
5
  6
CONTINUOUS
 62
     7
 10
1300.1228278469259
 20
446.8432669777427
 30
0.0
 40
15.0
  1
474
 50
90.0
 41
0.8
  7
ROMANS
 11
1292.6228278469259
 21
446.8432669777427
 31
0.0
 73
     2
  0
LINE
  5
CC
  8
5
  6
CONTINUOUS
 62
     7
 10
1307.622827846925
 20
633.54326697774275
 30
0.0
 11
1307.622827846925
 21
159.5432669777426
 31
0.0
  0
POLYLINE
  5
CD
  8
5
  6
CONTINUOUS
 62
     7
 66
     1
 10
0.0
 20
0.0
 30
0.0
 70
     1
  0
VERTEX
  5
254
  8
5
  6
CONTINUOUS
 62
     7
 10
1303.922827846925
 20
618.54326697774275
 30
0.0
  0
VERTEX
  5
255
  8
5
  6
CONTINUOUS
 62
     7
 10
1307.622827846925
 20
633.54326697774275
 30
0.0
  0
VERTEX
  5
256
  8
5
  6
CONTINUOUS
 62
     7
 10
1311.3228278469251
 20
618.54326697774275
 30
0.0
  0
SEQEND
  5
257
  8
5
  6
CONTINUOUS
 62
     7
  0
POLYLINE
  5
CE
  8
5
  6
CONTINUOUS
 62
     7
 66
     1
 10
0.0
 20
0.0
 30
0.0
 70
     1
  0
VERTEX
  5
258
  8
5
  6
CONTINUOUS
 62
     7
 10
1311.3228278469251
 20
174.5432669777426
 30
0.0
  0
VERTEX
  5
259
  8
5
  6
CONTINUOUS
 62
     7
 10
1307.622827846925
 20
159.5432669777426
 30
0.0
  0
VERTEX
  5
25A
  8
5
  6
CONTINUOUS
 62
     7
 10
1303.922827846925
 20
174.5432669777426
 30
0.0
  0
SEQEND
  5
25B
  8
5
  6
CONTINUOUS
 62
     7
  0
LINE
  5
CF
  8
5
  6
CONTINUOUS
 62
     7
 10
1141.3228278469251
 20
633.54326697774275
 30
0.0
 11
1315.1228278469259
 21
633.54326697774275
 31
0.0
  0
LINE
  5
D0
  8
5
  6
CONTINUOUS
 62
     7
 10
1136.3228278469251
 20
159.5432669777426
 30
0.0
 11
1315.1228278469259
 21
159.5432669777426
 31
0.0
  0
TEXT
  5
D1
  8
5
  6
CONTINUOUS
 62
     7
 10
853.62282784692559
 20
542.54326697774275
 30
0.0
 40
15.0
  1
154
 50
90.0
 41
0.8
  7
ROMANS
 11
846.12282784692559
 21
542.54326697774275
 31
0.0
 73
     2
  0
LINE
  5
D2
  8
5
  6
CONTINUOUS
 62
     7
 10
861.12282784692547
 20
633.54326697774275
 30
0.0
 11
861.12282784692547
 21
479.54326697774258
 31
0.0
  0
POLYLINE
  5
D3
  8
5
  6
CONTINUOUS
 62
     7
 66
     1
 10
0.0
 20
0.0
 30
0.0
 70
     1
  0
VERTEX
  5
25C
  8
5
  6
CONTINUOUS
 62
     7
 10
857.32282784692552
 20
618.54326697774275
 30
0.0
  0
VERTEX
  5
25D
  8
5
  6
CONTINUOUS
 62
     7
 10
861.12282784692547
 20
633.54326697774275
 30
0.0
  0
VERTEX
  5
25E
  8
5
  6
CONTINUOUS
 62
     7
 10
864.92282784692554
 20
618.54326697774275
 30
0.0
  0
SEQEND
  5
25F
  8
5
  6
CONTINUOUS
 62
     7
  0
POLYLINE
  5
D4
  8
5
  6
CONTINUOUS
 62
     7
 66
     1
 10
0.0
 20
0.0
 30
0.0
 70
     1
  0
VERTEX
  5
260
  8
5
  6
CONTINUOUS
 62
     7
 10
864.92282784692554
 20
494.54326697774269
 30
0.0
  0
VERTEX
  5
261
  8
5
  6
CONTINUOUS
 62
     7
 10
861.12282784692547
 20
479.54326697774258
 30
0.0
  0
VERTEX
  5
262
  8
5
  6
CONTINUOUS
 62
     7
 10
857.32282784692552
 20
494.54326697774269
 30
0.0
  0
SEQEND
  5
263
  8
5
  6
CONTINUOUS
 62
     7
  0
LINE
  5
D5
  8
5
  6
CONTINUOUS
 62
     7
 10
962.32282784692552
 20
633.54326697774275
 30
0.0
 11
853.62282784692559
 21
633.54326697774275
 31
0.0
  0
LINE
  5
D6
  8
5
  6
CONTINUOUS
 62
     7
 10
890.82282784692552
 20
479.54326697774258
 30
0.0
 11
853.62282784692559
 21
479.54326697774258
 31
0.0
  0
TEXT
  5
D7
  8
5
  6
CONTINUOUS
 62
     7
 10
697.82282784692563
 20
381.64326697774271
 30
0.0
 40
15.0
  1
474
 50
90.0
 41
0.8
  7
ROMANS
 11
690.32282784692563
 21
381.64326697774271
 31
0.0
 73
     2
  0
LINE
  5
D8
  8
5
  6
CONTINUOUS
 62
     7
 10
705.32282784692552
 20
633.54326697774275
 30
0.0
 11
705.32282784692552
 21
159.5432669777426
 31
0.0
  0
POLYLINE
  5
D9
  8
5
  6
CONTINUOUS
 62
     7
 66
     1
 10
0.0
 20
0.0
 30
0.0
 70
     1
  0
VERTEX
  5
264
  8
5
  6
CONTINUOUS
 62
     7
 10
701.52282784692557
 20
618.54326697774275
 30
0.0
  0
VERTEX
  5
265
  8
5
  6
CONTINUOUS
 62
     7
 10
705.32282784692552
 20
633.54326697774275
 30
0.0
  0
VERTEX
  5
266
  8
5
  6
CONTINUOUS
 62
     7
 10
709.12282784692547
 20
618.54326697774275
 30
0.0
  0
SEQEND
  5
267
  8
5
  6
CONTINUOUS
 62
     7
  0
POLYLINE
  5
DA
  8
5
  6
CONTINUOUS
 62
     7
 66
     1
 10
0.0
 20
0.0
 30
0.0
 70
     1
  0
VERTEX
  5
268
  8
5
  6
CONTINUOUS
 62
     7
 10
709.12282784692547
 20
174.5432669777426
 30
0.0
  0
VERTEX
  5
269
  8
5
  6
CONTINUOUS
 62
     7
 10
705.32282784692552
 20
159.5432669777426
 30
0.0
  0
VERTEX
  5
26A
  8
5
  6
CONTINUOUS
 62
     7
 10
701.52282784692557
 20
174.5432669777426
 30
0.0
  0
SEQEND
  5
26B
  8
5
  6
CONTINUOUS
 62
     7
  0
LINE
  5
DB
  8
5
  6
CONTINUOUS
 62
     7
 10
659.82282784692552
 20
633.54326697774275
 30
0.0
 11
712.82282784692563
 21
633.54326697774275
 31
0.0
  0
LINE
  5
DC
  8
5
  6
CONTINUOUS
 62
     7
 10
659.82282784692552
 20
159.5432669777426
 30
0.0
 11
712.82282784692563
 21
159.5432669777426
 31
0.0
  0
TEXT
  5
DD
  8
5
  6
CONTINUOUS
 62
     7
 10
1061.422827846925
 20
580.04326697774275
 30
0.0
 40
15.0
  1
35
 50
90.0
 41
0.8
  7
ROMANS
 11
1053.922827846925
 21
580.04326697774275
 31
0.0
 73
     2
  0
LINE
  5
DE
  8
5
  6
CONTINUOUS
 62
     7
 10
1068.922827846925
 20
613.04326697774275
 30
0.0
 11
1068.922827846925
 21
566.04326697774275
 31
0.0
  0
POLYLINE
  5
DF
  8
5
  6
CONTINUOUS
 62
     7
 66
     1
 10
0.0
 20
0.0
 30
0.0
 70
     1
  0
VERTEX
  5
26C
  8
5
  6
CONTINUOUS
 62
     7
 10
1072.7228278469249
 20
622.04326697774275
 30
0.0
  0
VERTEX
  5
26D
  8
5
  6
CONTINUOUS
 62
     7
 10
1068.922827846925
 20
607.04326697774275
 30
0.0
  0
VERTEX
  5
26E
  8
5
  6
CONTINUOUS
 62
     7
 10
1065.1228278469259
 20
622.04326697774275
 30
0.0
  0
SEQEND
  5
26F
  8
5
  6
CONTINUOUS
 62
     7
  0
POLYLINE
  5
E0
  8
5
  6
CONTINUOUS
 62
     7
 66
     1
 10
0.0
 20
0.0
 30
0.0
 70
     1
  0
VERTEX
  5
270
  8
5
  6
CONTINUOUS
 62
     7
 10
1065.1228278469259
 20
557.04326697774275
 30
0.0
  0
VERTEX
  5
271
  8
5
  6
CONTINUOUS
 62
     7
 10
1068.922827846925
 20
572.04326697774275
 30
0.0
  0
VERTEX
  5
272
  8
5
  6
CONTINUOUS
 62
     7
 10
1072.7228278469249
 20
557.04326697774275
 30
0.0
  0
SEQEND
  5
273
  8
5
  6
CONTINUOUS
 62
     7
  0
LINE
  5
E1
  8
5
  6
CONTINUOUS
 62
     7
 10
1116.3228278469251
 20
607.04326697774275
 30
0.0
 11
1061.422827846925
 21
607.04326697774275
 31
0.0
  0
LINE
  5
E2
  8
5
  6
CONTINUOUS
 62
     7
 10
1116.3228278469251
 20
572.04326697774275
 30
0.0
 11
1061.422827846925
 21
572.04326697774275
 31
0.0
  0
INSERT
  5
EB
  8
2
  6
CONTINUOUS
  2
*U4
 10
0.0
 20
0.0
 30
0.0
1001
ACAD
1002
{
1000
R14_HATCH_DATA
1000
EB
1011
1.0
1021
-7.2294757342930368E+221
1031
0.0
1021
0.0
1031
0.0
1011
0.0
1021
-7.2294757342930368E+221
1031
0.0
1021
1.0
1031
0.0
1011
0.0
1021
-7.2294757342930368E+221
1031
0.0
1021
0.0
1031
1.0
1040
0.0
1010
0.0
1020
0.0
1030
1.0
1000
SOLID
1070
     1
1070
     1
1071
        1
1071
        1
1071
       19
1070
     1
1040
1120.7228278469249
1040
241.54326697774269
1040
1108.375964310346
1040
238.78727065717169
1070
     2
1040
1113.8228278469251
1040
219.54326697774269
1040
20.000000000000021
1040
1.8466237499755911
1040
6.2831853071795862
1070
     1
1070
     1
1040
1133.8228278469251
1040
219.54326697774269
1040
1133.8228278469251
1040
249.07429278125099
1070
     2
1040
1108.8228289869371
1040
249.0742931181791
1040
24.999998859988409
1040
6.2831852937024637
1040
7.639624839016018
1070
     1
1070
     2
1040
1139.647987607588
1040
393.81342000070663
1040
122.9854607527524
1040
1.779712740481932
1040
3.1229539564733471
1070
     0
1070
     1
1040
1016.683888874275
1040
391.52126396961648
1040
1013.822827846925
1040
447.18700312541858
1070
     2
1040
1005.822827846925
1040
447.18700328632741
1040
8.0000000000000018
1040
6.283185287065983
1040
7.4734752568724891
1070
     1
1070
     1
1040
1008.793953257681
1040
454.61481681344031
1040
1005.226581204928
1040
455.99492582227288
1070
     2
1040
1002.3193024796921
1040
448.56198097224632
1040
7.9812867840809441
1040
1.197956192715087
1040
1.570354622663342
1070
     1
1070
     1
1040
1002.322827846925
1040
456.54326697774258
1040
967.82282784692575
1040
456.54326697774258
1070
     1
1040
967.82282784692575
1040
456.54326697774258
1040
967.82282784692575
1040
451.54326697774258
1070
     1
1040
967.82282784692575
1040
451.54326697774258
1040
1003.113917315287
1040
451.54326697774258
1070
     2
1040
1003.113917315287
1040
448.54326697774258
1040
2.9999999999999432
1040
4.7123889803846524
1040
5.144796775116018
1070
     0
1070
     1
1040
1004.371091899864
1040
451.2671451071555
1040
1007.041243244923
1040
450.03508235641038
1070
     2
1040
1005.8610039711
1040
447.31845734626438
1040
2.9619277825812191
1040
5.1222370334821976
1040
6.2748090321933994
1070
     0
1070
     1
1040
1008.822827846926
1040
447.3432669777427
1040
1010.81284039043
1040
391.0832513410316
1070
     2
1040
1140.7507803031031
1040
395.65572410223729
1040
130.01836691752999
1040
3.1767678055258739
1040
4.497897449298228
1070
     1
1070
     2
1040
1108.822827940664
1040
249.074292294185
1040
19.999999887689611
1040
4.9266987081004201
1040
6.0603828990906781
1070
     0
1070
     2
1040
1118.621607813657
1040
251.27598018810809
1040
9.956948933454699
1040
6.0585844311017771
1040
7.6413525394152444
1070
     0
1071
        1
1005
87
1070
     0
1070
     1
1071
        1
1040
1610.7228278469261
1040
-190.75673302225729
1040
0.0
1002
}
  0
LINE
  5
10B
  8
2
  6
CONTINUOUS
 62
     7
 10
1123.8228278469251
 20
607.04326697774275
 30
0.0
 11
1123.8228278469251
 21
607.04326697774275
 31
0.0
  0
LINE
  5
10D
  8
2
  6
CONTINUOUS
 10
1123.8228278469251
 20
607.04326697774275
 30
0.0
 11
1123.8228278469251
 21
572.04326697774275
 31
0.0
  0
LINE
  5
110
  8
2
  6
CONTINUOUS
 10
1133.8228278469251
 20
607.04326697774275
 30
0.0
 11
1133.8228278469251
 21
572.04326697774275
 31
0.0
  0
POLYLINE
  5
112
  8
2
  6
CONTINUOUS
 62
     7
 66
     1
 10
0.0
 20
0.0
 30
0.0
 70
   129
  0
VERTEX
  5
312
  8
2
  6
CONTINUOUS
 62
     7
 10
1128.8228278469251
 20
633.54326697774275
 30
0.0
  0
VERTEX
  5
313
  8
2
  6
CONTINUOUS
 62
     7
 10
1123.8228278469251
 20
633.54326697774275
 30
0.0
  0
VERTEX
  5
314
  8
2
  6
CONTINUOUS
 62
     7
 10
1123.8228278469251
 20
607.04326697774275
 30
0.0
  0
VERTEX
  5
315
  8
2
  6
CONTINUOUS
 62
     7
 10
1133.8228278469251
 20
607.04326697774275
 30
0.0
  0
VERTEX
  5
316
  8
2
  6
CONTINUOUS
 62
     7
 10
1133.8228278469251
 20
612.54326697774275
 30
0.0
  0
SEQEND
  5
317
  8
2
  6
CONTINUOUS
 62
     7
  0
POLYLINE
  5
113
  8
2
  6
CONTINUOUS
 66
     1
 10
0.0
 20
0.0
 30
0.0
 70
   129
  0
VERTEX
  5
318
  8
2
  6
CONTINUOUS
 10
1123.2228278469249
 20
541.44326697774261
 30
0.0
  0
VERTEX
  5
319
  8
2
  6
CONTINUOUS
 10
1013.422827846925
 20
527.64326697774266
 30
0.0
 42
0.3780164193511432
  0
VERTEX
  5
31A
  8
2
  6
CONTINUOUS
 10
1003.822827846925
 20
516.7194645831529
 30
0.0
  0
VERTEX
  5
31B
  8
2
  6
CONTINUOUS
 10
1003.822827846925
 20
510.54326697774269
 30
0.0
 42
-0.4142135623730951
  0
VERTEX
  5
31C
  8
2
  6
CONTINUOUS
 10
995.82282784692563
 20
502.5432669777428
 30
0.0
  0
VERTEX
  5
31D
  8
2
  6
CONTINUOUS
 10
985.7228278469255
 20
502.54326697774269
 30
0.0
  0
VERTEX
  5
31E
  8
2
  6
CONTINUOUS
 10
967.82282784692575
 20
502.54326697774269
 30
0.0
  0
VERTEX
  5
31F
  8
2
  6
CONTINUOUS
 10
967.82282784692575
 20
507.54326697774269
 30
0.0
  0
VERTEX
  5
320
  8
2
  6
CONTINUOUS
 10
995.82282784692563
 20
507.54326697774269
 30
0.0
 42
0.414213562373106
  0
VERTEX
  5
321
  8
2
  6
CONTINUOUS
 10
998.82282784692552
 20
510.5432669777428
 30
0.0
  0
VERTEX
  5
322
  8
2
  6
CONTINUOUS
 10
998.82282784692552
 20
516.74326697774268
 30
0.0
 42
-0.3780430298448804
  0
VERTEX
  5
323
  8
2
  6
CONTINUOUS
 10
1012.827192487933
 20
532.63067765567655
 30
0.0
  0
VERTEX
  5
324
  8
2
  6
CONTINUOUS
 10
1119.522827846926
 20
546.04326697774263
 30
0.0
 42
0.3779355656648694
  0
VERTEX
  5
325
  8
2
  6
CONTINUOUS
 10
1123.8494278432261
 20
550.99940281686804
 30
0.0
  0
VERTEX
  5
326
  8
2
  6
CONTINUOUS
 10
1123.8228278469251
 20
572.04326697774275
 30
0.0
  0
VERTEX
  5
327
  8
2
  6
CONTINUOUS
 10
1133.8228278469251
 20
572.04326697774275
 30
0.0
  0
VERTEX
  5
328
  8
2
  6
CONTINUOUS
 10
1133.8228278469251
 20
537.54326697774275
 30
0.0
 42
-0.4146234440529396
  0
VERTEX
  5
329
  8
2
  6
CONTINUOUS
 10
1128.8228278561951
 20
532.49501354660947
 30
0.0
  0
VERTEX
  5
32A
  8
2
  6
CONTINUOUS
 10
1128.8228278469251
 20
536.44326697774272
 30
0.0
 42
0.4142135623730951
  0
VERTEX
  5
32B
  8
2
  6
CONTINUOUS
 10
1123.849427846925
 20
541.47186697404277
 30
0.0
  0
SEQEND
  5
32C
  8
2
  6
CONTINUOUS
  0
INSERT
  5
115
  8
2
  6
CONTINUOUS
  2
*U5
 10
0.0
 20
0.0
 30
0.0
1001
ACAD
1002
{
1000
R14_HATCH_DATA
1000
115
1011
1.0
1021
-7.2294757342930368E+221
1031
0.0
1021
0.0
1031
0.0
1011
0.0
1021
-7.2294757342930368E+221
1031
0.0
1021
1.0
1031
0.0
1011
0.0
1021
-7.2294757342930368E+221
1031
0.0
1021
0.0
1031
1.0
1040
0.0
1010
0.0
1020
0.0
1030
1.0
1000
SOLID
1070
     1
1070
     1
1071
        1
1071
        1
1071
       20
1070
     1
1040
1123.2228278469249
1040
541.44326697774261
1040
1013.422827846925
1040
527.64326697774266
1070
     2
1040
1014.814906903231
1040
516.73967461895518
1040
10.99209763537495
1040
1.697780946749736
1040
3.1434312514497318
1070
     1
1070
     1
1040
1003.822827846925
1040
516.7194645831529
1040
1003.822827846925
1040
510.54326697774269
1070
     2
1040
995.82282784692541
1040
510.54326697774269
1040
8.0
1040
6.2831853071795862
1040
7.8539816339744677
1070
     0
1070
     1
1040
995.82282784692563
1040
502.5432669777428
1040
985.7228278469255
1040
502.54326697774269
1070
     1
1040
985.7228278469255
1040
502.54326697774269
1040
967.82282784692575
1040
502.54326697774269
1070
     1
1040
967.82282784692575
1040
502.54326697774269
1040
967.82282784692575
1040
507.54326697774269
1070
     1
1040
967.82282784692575
1040
507.54326697774269
1040
995.82282784692563
1040
507.54326697774269
1070
     2
1040
995.82282784692563
1040
510.54326697774269
1040
3.0
1040
4.7123889803846888
1040
6.2831853071796244
1070
     1
1070
     1
1040
998.82282784692552
1040
510.5432669777428
1040
998.82282784692552
1040
516.74326697774268
1070
     2
1040
1014.829829698416
1040
516.74944374173833
1040
16.00700304323172
1040
3.1412067747258821
1040
4.5869502121340151
1070
     0
1070
     1
1040
1012.827192487933
1040
532.63067765567655
1040
1119.522827846926
1040
546.04326697774263
1070
     2
1040
1118.8759763825519
1040
550.97453668636342
1040
4.9735136227945516
1040
4.8428177200021523
1040
6.2881850389564757
1070
     1
1070
     1
1040
1123.8494278432261
1040
550.99940281686804
1040
1123.8228278469251
1040
572.04326697774275
1070
     1
1040
1123.8228278469251
1040
572.04326697774275
1040
1133.8228278469251
1040
572.04326697774275
1070
     1
1040
1133.8228278469251
1040
572.04326697774275
1040
1133.8228278469251
1040
537.54326697774275
1070
     2
1040
1128.802230477919
1040
537.51564465062745
1040
5.020673354703109
1040
6.2776835617930304
1040
7.8498791093529636
1070
     0
1070
     1
1040
1128.8228278561951
1040
532.49501354660947
1040
1128.8228278469251
1040
536.44326697774272
1070
     2
1040
1123.821827848775
1040
536.47086697589282
1040
5.0010761583275798
1040
6.2776664673575704
1040
7.84846279415249
1070
     1
1070
     1
1040
1123.849427846925
1040
541.47186697404277
1040
1123.2228278469249
1040
541.44326697774261
1071
        1
1005
113
1070
     0
1070
     1
1071
        1
1040
1610.7228278469261
1040
-190.75673302225729
1040
0.0
1002
}
  0
INSERT
  5
116
  8
2
  6
CONTINUOUS
  2
*U6
 10
0.0
 20
0.0
 30
0.0
1001
ACAD
1002
{
1000
R14_HATCH_DATA
1000
116
1011
1.0
1021
-7.2294757342930368E+221
1031
0.0
1021
0.0
1031
0.0
1011
0.0
1021
-7.2294757342930368E+221
1031
0.0
1021
1.0
1031
0.0
1011
0.0
1021
-7.2294757342930368E+221
1031
0.0
1021
0.0
1031
1.0
1040
0.0
1010
0.0
1020
0.0
1030
1.0
1000
SOLID
1070
     1
1070
     1
1071
        1
1071
        1
1071
        5
1070
     1
1040
1128.8228278469251
1040
633.54326697774275
1040
1123.8228278469251
1040
633.54326697774275
1070
     1
1040
1123.8228278469251
1040
633.54326697774275
1040
1123.8228278469251
1040
607.04326697774275
1070
     1
1040
1123.8228278469251
1040
607.04326697774275
1040
1133.8228278469251
1040
607.04326697774275
1070
     1
1040
1133.8228278469251
1040
607.04326697774275
1040
1133.8228278469251
1040
612.54326697774275
1070
     1
1040
1133.8228278469251
1040
612.54326697774275
1040
1128.8228278469251
1040
633.54326697774275
1071
        1
1005
112
1070
     0
1070
     1
1071
        1
1040
1610.7228278469261
1040
-190.75673302225729
1040
0.0
1002
}
  0
INSERT
  5
117
  8
2
  6
CONTINUOUS
  2
*U7
 10
0.0
 20
0.0
 30
0.0
1001
ACAD
1002
{
1000
R14_HATCH_DATA
1000
117
1011
1.0
1021
-7.2294757342930368E+221
1031
0.0
1021
0.0
1031
0.0
1011
0.0
1021
-7.2294757342930368E+221
1031
0.0
1021
1.0
1031
0.0
1011
0.0
1021
-7.2294757342930368E+221
1031
0.0
1021
0.0
1031
1.0
1040
0.0
1010
0.0
1020
0.0
1030
1.0
1000
SOLID
1070
     1
1070
     1
1071
        1
1071
        1
1071
        9
1070
     1
1040
1113.8228278469251
1040
530.14326697774266
1040
1113.8228278469251
1040
535.24326697774268
1070
     1
1040
1113.8228278469251
1040
535.24326697774268
1040
1021.722827846925
1040
523.64326697774266
1070
     1
1040
1021.722827846925
1040
523.64326697774266
1040
1021.972920436279
1040
523.66544131011324
1070
     2
1040
1023.8588153836261
1040
508.74819137250552
1040
15.035988343088411
1040
1.6965529388254259
1040
3.141920160817016
1070
     1
1070
     1
1040
1008.822827846926
1040
508.74326697774268
1040
1008.822827846926
1040
506.14326697774283
1070
     1
1040
1008.822827846926
1040
506.14326697774283
1040
1012.072250417579
1040
507.04396434345222
1070
     2
1040
1011.366816417523
1040
509.44237235326949
1040
2.499999621998195
1040
4.9984480507940532
1040
6.2304334516170341
1070
     1
1070
     2
1040
1023.884684279845
1040
508.78795687448991
1040
10.03496292515471
1040
3.1936938451465542
1040
4.5863092177171376
1070
     0
1070
     1
1040
1022.622827846925
1040
518.74326697774256
1040
1113.8228278469251
1040
530.14326697774266
1071
        1
1005
45
1070
     0
1070
     1
1071
        1
1040
1610.7228278469261
1040
-190.75673302225729
1040
0.0
1002
}
  0
POLYLINE
  5
1C7
  8
LAYER01
  6
CONTINUOUS
 62
     7
 66
     1
 10
0.0
 20
0.0
 30
0.0
 70
     1
  0
VERTEX
  5
5A4
  8
LAYER01
  6
CONTINUOUS
 62
     7
 10
-81.497106692526359
 20
-184.9191209156532
 30
0.0
  0
VERTEX
  5
5A5
  8
LAYER01
  6
CONTINUOUS
 62
     7
 10
-81.497106692526359
 20
1053.4292358843461
 30
0.0
  0
VERTEX
  5
5A6
  8
LAYER01
  6
CONTINUOUS
 62
     7
 10
1904.563717707473
 20
1053.4292358843461
 30
0.0
  0
VERTEX
  5
5A7
  8
LAYER01
  6
CONTINUOUS
 62
     7
 10
1904.563717707473
 20
-184.9191209156532
 30
0.0
  0
SEQEND
  5
5A8
  8
LAYER01
  6
CONTINUOUS
 62
     7
  0
INSERT
  5
1C8
  8
LAYER01
  2
DEFAULT2-G6
 10
-35.060694292526023
 20
-210.1299449156532
 30
0.0
 41
0.3999999999996362
 42
0.3999999999999772
 43
0.4
  0
TEXT
  5
1C9
  8
LAYER01
  6
VERDECKT
 62
     1
 10
-8553.7108949690592
 20
536.64012766679832
 30
0.0
 40
5.5999999999999996
  1
xxx.skd
  7
SIMPLEX
  0
TEXT
  5
1CA
  8
LAYER01
  6
VERDECKT
 62
     1
 10
1624.8263205074741
 20
-47.988288515653267
 30
0.0
 40
14.0
  1
A. Sprenger GmbH
  7
SIMPLEX
  0
TEXT
  5
1CB
  8
LAYER01
  6
CONTINUOUS
 62
     7
 10
1620.284632907473
 20
38.711845884346758
 30
0.0
 40
4.2000000000000002
  1
Diese Zeichnung ist geistiges Eigentum der A. Sprenger GmbH
  7
SIMPLEX
  0
TEXT
  5
1CC
  8
LAYER01
  6
CONTINUOUS
 62
     7
 10
1620.284632907473
 20
31.51184588434683
 30
0.0
 40
4.2000000000000002
  1
und urheberrechtlich geschützt. Ohne unsere Zustimmung darf 
  7
SIMPLEX
  0
TEXT
  5
1CD
  8
LAYER01
  6
CONTINUOUS
 62
     7
 10
1620.284632907473
 20
24.311845884346781
 30
0.0
 40
4.2000000000000002
  1
sie in keiner Form verwendet oder Dritten zugänglich gemacht
  7
SIMPLEX
  0
TEXT
  5
1CE
  8
LAYER01
  6
CONTINUOUS
 62
     7
 10
1620.284632907473
 20
17.111845884346732
 30
0.0
 40
4.2000000000000002
  1
werden. (§106 Urheberrecht)
  7
SIMPLEX
  0
TEXT
  5
1CF
  8
LAYER01
  6
VERDECKT
 62
     1
 10
1495.0933253074741
 20
-80.403775715653055
 30
0.0
 40
5.5999999999999996
  1
2013
  7
SIMPLEX
  0
TEXT
  5
1D0
  8
LAYER01
  6
VERDECKT
 62
     1
 10
1624.8263205074741
 20
-102.970703715653
 30
0.0
 40
19.600000000000001
  1
EBS8
  7
SIMPLEX
  0
INSERT
  5
1D1
  8
LAYER01
  6
CONTINUOUS
 62
     7
  2
WMF0
 10
1124.159256879924
 20
-542.96049632688789
 30
0.0
 41
0.1000000000003638
 42
0.1000000000000227
 43
0.1
  0
ENDSEC
  0
EOF
